Song name
# A B C D E F G H I J K L M N O P Q R S T U V W X Y Z

Nickel Eye - Where The Cold Wind Blows tab

-------------------------------------------------------------------------------
Where the cold  wind blows – Nickel eye
-------------------------------------------------------------------------------
Tabbed by: the wanderer
Diego Armando Contreras Peralta
Email: wanderer@ciencias.unam.mx

Tuning: Eb Ab Db Gb Bb eb

Esto lo hace durante toda la canción. Las partes con ~ se refieren a la duración, no al vibrato

eb|---2---2---2---2---2---2--0---2---2------3---3---2---2---3---3--------|
Bb|-----3---3---3---3---3------3---3---(3)----3---3---3---3---3---3------|
Gb|----------------------------------------------------------------------|
Db|-----------0~---------------------------------------------------------|
Ab|---2~--------------4~----------------------------2~--------------0~---|
Eb|------------------------------4~-----0h2-3~--------------3~-----------|

Al 01:07 comienza a marcar el bajeo un chelo, simplemente son las mismas que hace la 
(claro que más graves el tab de abajo no corresponde al tono)
eb|----------------------------------------------------------------------|
Bb|----------------------------------------------------------------------|
Gb|----------------------------------------------------------------------|
Db|-----------0~---------------------------------------------------------|
Ab|---2~--------------4~----------------------------2~--------------0~---|
Eb|------------------------------4~---------3~--------------3~-----------|

Al 02:01 comienza un piano. Lo transcribiré posteriormente.
Tap to rate this tab
# A B C D E F G H I J K L M N O P Q R S T U V W X Y Z