Song name
# A B C D E F G H I J K L M N O P Q R S T U V W X Y Z

Nickel Eye - Fountain Avenue tab

Nikolai plays this with a capodastro, but I tabbed Fountain Avenue to play it without.

The stroke rhythm is easy, you'll get it when you listen to the song carefully.

INTRO:

e|----------------------10--10--10--10--10--10--10--10--10--10---------------|
B|----------------------10--10--10--10--10--10--10--10--10--10---------------|
G|----------------------11--11--11--11--11--11--11--11--11--11---------------|
D|----------------------12--12--12--12--12--12--12--12--12--12---------------|
A|--------10-12-12-9----12--12--12--12--12--12--12--12--12--12---------------|
E|--10-12------------12-10--10--10--10--10--10--10--10--10--10---------------|

e|----------------------7--7--7--7--7--7--7--7--7--7-------------------------|
B|----------------------8--8--8--8--8--8--8--8--8--8-------------------------|
G|----------------------9--9--9--9--9--9--9--9--9--9-------------------------|
D|----------------------9--9--9--9--9--9--9--9--9--9-------------------------|
A|--------10-12-12-9-12-7--7--7--7--7--7--7--7--7--7-------------------------|
E|--10-12---------------x--x--x--x--x--x--x--x--x--x-------------------------|

e|----------------------10--10--10--10--10--10--10--10--10--10---------------|
B|----------------------10--10--10--10--10--10--10--10--10--10---------------|
G|----------------------11--11--11--11--11--11--11--11--11--11---------------|
D|----------------------12--12--12--12--12--12--12--12--12--12---------------|
A|--------10-12-12-9----12--12--12--12--12--12--12--12--12--12---------------|
E|--10-12------------12-10--10--10--10--10--10--10--10--10--10---------------|

e|----------------------10--10--10--10--10--10--10--10--10--10---------------|
B|----------------------10--10--10--10--10--10--10--10--10--10---------------|
G|----------------------11--11--11--11--11--11--11--11--11--11---------------|
D|----------------------12--12--12--12--12--12--12--12--12--12---------------|
A|--------10-12-12-9----12--12--12--12--12--12--12--12--12--12---------------|
E|--10-12------------12-10--10--10--10--10--10--10--10--10--10---------------|


e|-10-10-10-10-10-10-10-10-10-10-10-10-10-10-10-10-10-10-10-10-10-10-10-10-10|
B|-10-10-10-10-10-10-10-10-10-10-10-10-10-10-10-10-10-10-10-10-10-10-10-10-10|
G|-11-11-11-11-11-11-11-11-11-11-11-11-11-11-11-11-11-11-11-11-11-11-11-11-11|
D|-12-12-12-12-12-12-12-12-12-12-12-12-12-12-12-12-12-12-12-12-12-12-12-12-12|
A|-12-12-12-12-12-12-12-12-12-12-12-12-12-12-12-12-12-12-12-12-12-12-12-12-12|
E|-12-12-12-12-12-10-10-10-10-10-12-12-12-12-12-10-10-10-10-10-12-12-12-12-12|

The rest of the song until the break, is played like this:

e|-10-10-10-10-10-10-10-10-10-10-7-7-7-7-7-7-7-7-7-7-------------------------|
B|-10-10-10-10-10-10-10-10-10-10-8-8-8-8-8-8-8-8-8-8-------------------------|
G|-11-11-11-11-11-11-11-11-11-11-9-9-9-9-9-9-9-9-9-9-------------------------|
D|-12-12-12-12-12-12-12-12-12-12-9-9-9-9-9-9-9-9-9-9-------------------------|
A|-12-12-12-12-12-12-12-12-12-12-7-7-7-7-7-7-7-7-7-7-------------------------|
E|-10-10-10-10-10-10-10-10-10-10-x-x-x-x-x-x-x-x-x-x-------------------------|

These are all the parts played in the song. They are repeated several times, you'll 
out where to play which.

Good luck!
Tap to rate this tab
# A B C D E F G H I J K L M N O P Q R S T U V W X Y Z