Song name
# A B C D E F G H I J K L M N O P Q R S T U V W X Y Z

Nickel Eye - Fountain Avenue tab

Artist - Nickel Eye
Song - Fountain Avenue
Album - The Time of the Assassins
[capo on 7th fret - all notes relative to capo]

Please rate if you find this helpful.  Thanks!

INTRO:
e|-----------------3--3-3-3-3--3--3-3-3-3-----------------0--0-0-0-0--0--0-0-0-0--|
B|-----------------0--0-0-0-0--0--0-0-0-0-----------------1--1-1-1-1--1--1-1-1-1--|
G|-----------------0--0-0-0-0--0--0-0-0-0-----------------0--0-0-0-0--0--0-0-0-0--|
D|--------0-0------0--0-0-0-0--0--0-0-0-0--------0-0---0--2--2-2-2-2--2--2-2-2-2--|
A|----0h2-----2-0--2--2-2-2-2--2--2-2-2-2----0h2-----2----3--3-3-3-3--3--3-3-3-3--|
E|--3--------------3--3-3-3-3--3--3-3-3-3--3--------------------------------------|

e|-----------------3--3-3-3-3--3--3-3-3-3-----------------3--3-3-3-3--3--3-3-3-3--|
B|-----------------0--0-0-0-0--0--0-0-0-0-----------------0--0-0-0-0--0--0-0-0-0--|
G|-----------------0--0-0-0-0--0--0-0-0-0-----------------0--0-0-0-0--0--0-0-0-0--|
D|--------0-0------0--0-0-0-0--0--0-0-0-0--------0-0------0--0-0-0-0--0--0-0-0-0--|
A|----0h2-----2-0--2--2-2-2-2--2--2-2-2-2----0h2-----2-0--2--2-2-2-2--2--2-2-2-2--|
E|--3--------------3--3-3-3-3--3--3-3-3-3--3--------------3--3-3-3-3--3--3-3-3-3--|

e|--0--0-0-0-0--0--0-0-0-0--3--3-3-3-3--3--3-3-3-3--3--3-3-3-3--3--3-3-3-3--------|
B|--1--1-1-1-1--1--1-1-1-1--0--0-0-0-0--0--0-0-0-0--0--0-0-0-0--0--0-0-0-0--------|
G|--0--0-0-0-0--0--0-0-0-0--0--0-0-0-0--0--0-0-0-0--0--0-0-0-0--0--0-0-0-0--------|
D|--2--2-2-2-2--2--2-2-2-2--0--0-0-0-0--0--0-0-0-0--0--0-0-0-0--0--0-0-0-0--------|
A|--3--3-3-3-3--3--3-3-3-3--2--2-2-2-2--2--2-2-2-2--2--2-2-2-2--2--2-2-2-2--------|
E|--------------------------3--3-3-3-3--3--3-3-3-3--0--0-0-0-0--0--0-0-0-0--------|

e|--3--3-3-3-3--3--3-3-3-3--3--3-3-3-3--3--3-3-3-3--------------------------------|
B|--0--0-0-0-0--0--0-0-0-0--0--0-0-0-0--0--0-0-0-0--------------------------------|
G|--0--0-0-0-0--0--0-0-0-0--0--0-0-0-0--0--0-0-0-0----[end of intro---------------|
D|--0--0-0-0-0--0--0-0-0-0--0--0-0-0-0--0--0-0-0-0----------beginning of verse]---|
A|--2--2-2-2-2--2--2-2-2-2--2--2-2-2-2--2--2-2-2-2--------------------------------|
E|--3--3-3-3-3--3--3-3-3-3--0--0-0-0-0--0--0-0-0-0--------------------------------|

I'm not going to bother tabbing the rest since it is all the same.  Same chords 
with the same strumming.  Listen for when Nikolai takes his finger off of the 3rd 
fret on the 6th string just like in the intro I tabbed out.  Have fun.
Tap to rate this tab
# A B C D E F G H I J K L M N O P Q R S T U V W X Y Z