Guitaretab - guitar tabs
Song name
# A B C D E F G H I J K L M N O P Q R S T U V W X Y Z

Nickelback - Left tab

-------------------------------------------------------------------------------
			      LEFT - Nickelback
-------------------------------------------------------------------------------
Tabbed by: Jordan Greczkowski
Email: jgsox33@sbcglobal.net
Tuning: Drop D
2 Guitars

Since this hasn't been tabbed, I decided to do it. So here ya go.

|INTRO|
Guitar 1 plays this x4, Guitar 2 joins on the 3rd time.
e|--------------------------------------|
B|--------------------------------------|
G|--------------------------------------|
D|--------------------------------------|
A|-------------------------------13-12--|
D|--0-0-10h12-0-10h12-0-10h12-0---------|

|INTRO PT. 2|
then this (both guitars at the same time)
Guitar 1
e|----------------------------------------------------------------------------|
B|----------12-11-X-9-7------------------------12-11-X-9-7--------------------|
G|----------------------------------------------------------------------------|
D|-----0-0--------------------------------0-0---------------------------------|
A|-----0-0-----------------12-12-12-14-8--0-0-----------------12-12-12-14-11--|
D|--00-0-0--------------------------------0-0---------------------------------|
|
|Guitar 2
e|----------------------------------------------------------------------------|
B|----------------------------------------------------------------------------|
G|----------------------------------------------------------------------------|
D|-----0-0--17-16-X-14-12-----------------0-0--17-16-X-14-12------------------|
A|-----0-0-----------------12-12-12-14-8--0-0-----------------12-12-12-14-11--|
D|--00-0-0--------------------------------0-0---------------------------------|


Guitar 1
e|----------------------------------------------------------------------------|
B|----------12-11-X-9-7-------------------------12-11-X-9-7-------------------|
G|----------------------------------------------------------------------------|
D|-----0-0---------------------------------0-0--------------------------------|
A|-----0-0-----------------12-12-12-14-11--0-0-----------------12-12-12-14-8--|
D|--00-0-0---------------------------------0-0--------------------------------|
|
|Guitar 2
e|----------------------------------------------------------------------------|
B|----------------------------------------------------------------------------|
G|----------------------------------------------------------------------------|
D|-----0-0--17-16-X-14-12------------------0-0--17-16-X-14-12-----------------|
A|-----0-0-----------------12-12-12-14-11--0-0-----------------12-12-12-14-8--|
D|--00-0-0---------------------------------0-0--------------------------------|

|INTRO PT. 3|
Guitar 1 plays this x4, Guitar 2 joins on the 3rd time.
e|--------------------------------------|
B|--------------------------------------|
G|--------------------------------------|
D|--------------------------------------|
A|-------------------------------13-12--|
D|--0-0-10h12-0-10h12-0-10h12-0---------|

[ Tab from: http://www.guitaretab.com/n/nickelback/102468.html ]
|VERSE|
then this (both guitars at the same time)
Guitar 1
e|----------------------------------------------------------------------------|
B|----------12-11-X-9-7------------------------12-11-X-9-7--------------------|
G|----------------------------------------------------------------------------|
D|-----0-0--------------------------------0-0---------------------------------|
A|-----0-0-----------------12-12-12-14-8--0-0-----------------12-12-12-14-11--|
D|--00-0-0--------------------------------0-0---------------------------------|
|
|Guitar 2
e|----------------------------------------------------------------------------|
B|----------------------------------------------------------------------------|
G|----------------------------------------------------------------------------|
D|-----0-0--17-16-X-14-12-----------------0-0--17-16-X-14-12------------------|
A|-----0-0-----------------12-12-12-14-8--0-0-----------------12-12-12-14-11--|
D|--00-0-0--------------------------------0-0---------------------------------|


Guitar 1
e|----------------------------------------------------------------------------|
B|----------12-11-X-9-7-------------------------12-11-X-9-7-------------------|
G|----------------------------------------------------------------------------|
D|-----0-0---------------------------------0-0--------------------------------|
A|-----0-0-----------------12-12-12-14-11--0-0-----------------12-12-12-14-8--|
D|--00-0-0---------------------------------0-0--------------------------------|
|
|Guitar 2
e|----------------------------------------------------------------------------|
B|----------------------------------------------------------------------------|
G|----------------------------------------------------------------------------|
D|-----0-0--17-16-X-14-12------------------0-0--17-16-X-14-12-----------------|
A|-----0-0-----------------12-12-12-14-11--0-0-----------------12-12-12-14-8--|
D|--00-0-0---------------------------------0-0--------------------------------|


|CHORUS|
e|----------------------------------------|
B|----------------------------------------|
G|----------------------------------------|
D|--0-0-0-----12------0-0-0---------------|
A|--0-0-0--8-----11---0-0-0--10-10/12-12--|
D|--0-0-0-------------0-0-0---------------|

followed by
|INTRO|
|VERSE|
|CHORUS|

then:
|BRIDGE|
Both Guitars
e|--------------------------------------------------------------------------|
B|--------------------------------------------------------------------------|
G|--------------------------------------------------------------------------|
D|--88888888--1010101010101010---0000-8888-3333-5555---0000-8888-3333-5555--|
A|--88888888--1010101010101010---0000-8888-3333-5555---0000-8888-3333-5555--|
D|--88888888--1010101010101010---0000-8888-3333-5555---0000-8888-3333-5555--|

e|-------------------------------------------------|
B|-------------------------------------------------|
G|-------------------------------------------------|
D|--000-222-333-555--000-222-333-555---00-8888-10--|
A|--000-222-333-555--000-222-333-555---00-8888-10--|
D|--000-222-333-555--000-222-333-555---00-8888-10--|


Then:
|INTRO|


Both Guitars x4
e|---------------------------------|
B|---------------------------------|
G|---------------------------------|
D|--000-------------000------------|
A|--000-11-11-12-12-000-9-9-10-10--|
D|--000-------------000------------|

Then:
|CHORUS|
|BRIDGE|

ends with 
e|--------------|
B|--------------|
G|--------------|
D|--00-8888-10--|
A|--00-8888-10--|
D|--00-8888-10--|


thanks.
Related for Left tab
×
Left