Song name
# A B C D E F G H I J K L M N O P Q R S T U V W X Y Z

Nickelback - Someday tab

Song: Someday
Band: Nickelback
Slow-Rock

Here are two guitars. An elec. guitar and an acoust. guitar.
The elec. guitar is played by Chad. The acoust. guitar by Ryan.
When Chad play the verse the guitar has an acoust. sound.
In the chorus and in the solo it's the normal sound.
The second guitar(Ryan)has in the chorus an electric sound.

Verse:
Elec. Gtr.(Chad)
       C#m         |        A      |   B     |     E5
D/---------------------------------|----------0-0-0--0---0-----------|
A/---5--5---5--5-5---2--2---2--2-2-|-4--4---4-0-0-0--0---0-----------|
F/---6--6---6--6-6---2--2---2--2-2-|-4--4---4-4-4-4--4---4-----------|
C/---6--6---6--6-6---2--2---2--2-2-|-4--4---4-2-2-2--2---2-----------|
G/---4--4---4--2-2-----------------|-2--2---2-2-2-2--2---2-----------|
C/---------------------------------|----------2-2-2--2---2-----------|

       C#m         |        A      |   B     |     E5
D/---------------------------------|----------0-0-0--0---0-----------|
A/---5--5---5--5-5---2--2---2--2-2-|-4--4---4-0-0-0--0---0-----------|
F/---6--6---6--6-6---2--2---2--2-2-|-4--4---4-4-4-4--4---4-----------|
C/---6--6---6--6-6---2--2---2--2-2-|-4--4---4-2-2-2--2---2-----------|
G/---4--4---4--2-2-----------------|-2--2---2-2-2-2--2---2-----------|
C/---------------------------------|----------2-2-2--2---2-----------|
  Play this two times!!

Lead verse:
Acoust. Gtr.(Ryan)
      
D/---------------------------------|--------------------------------|
A/---5--4--5--4---5--4-------------|---5--4-------------------------|
F/---6--6--6--6---6--6-------------|-4--------4---------------------|
C/---------------------------------|--------------------------------|
G/---------------------------------|--------------------------------|
C/---------------------------------|--------------------------------|
  Play this only in the fird and fourth part of the verse!!

Pre Chorus:
Both gtr.(Ryan, Chad)
           F#5                                B5
D/--------------------------------|----------------------------------|
A/--------------------------------|----------------------------------|
F/--------------------------------|----------------------------------|
C/---4----4----4----4----4----4---|-9----9----9----9----9------------|
G/---4----4----4----4----4----4---|-9----9----9----9----9------------|
C/---4----4----4----4----4----4---|-9----9----9----9----9------------|
        Nothing's wrong just as long  as  you  know that someday I will.

Chorus:
Both gtrs.(Chad, Ryan)
         A        |      E5       |      B       |     F#5
D/------------------0--0--0--0-0--|----------------------------------|
A/---2--2--2--2-2---0--0--0--0-0--|-4--4--4--4-4---7--7--7--7-7------|
F/---2--2--2--2-2---4--4--4--4-4--|-4--4--4--4-4---6--6--6--6-6------|
C/---2--2--2--2-2---2--2--2--2-2--|-4--4--4--4-4---4--4--4--4-4------|
G/---0--0--0--0-0---2--2--2--2-2--|-2--2--2--2-2---4--4--4--4-4------|
C/------------------2--2--2--2-2--|----------------4--4--4--4-4------|
         Someday, Somehow......       I'm gonna make it alright...
This guitar here isnt here. It's recording in the studio.
2. Elec. Gtr. (Clean tone) 
D/---------------4----------------|----------------------------------|
A/---------5----------------------|-------5--------------------------|
F/---4--6-----6-------------------|-4--6-----6--7--------------------|
C/--------------------------------|----------------------------------|
G/--------------------------------|----------------------------------|
C/--------------------------------|----------------------------------|
         Someday, Somehow..

Both gtrs.(Chad, Ryan)
         A        |       B       |      C#m     |       B
D/--------------------------------|----------------------------------|
A/---2--2--2--2-2---4--4--4--4-4--|-5--5--5--5-5---4--4--4--4-4------|
F/---2--2--2--2-2---4--4--4--4-4--|-6--6--6--6-6---4--4--4--4-4------|
C/---2--2--2--2-2---4--4--4--4-4--|-6--6--6--6-6---4--4--4--4-4------|
G/---0--0--0--0-0---2--2--2--2-2--|-4--4--4--4-4---2--2--2--2-2------|
C/--------------------------------|----------------------------------|
         I know you're wondering when....
                                    You're the only one who knows t




2. Elec. Gtr.(Clean tone)
D/--------------4--|--------4-----|--------4-------------------------|
A/---------5---------------5------|-----5-----------/7---5---4-------|
F/---4--6----6------4--6-----6----|-6-----------6----------------6---|
C/--------------------------------|----------------------------------|
G/--------------------------------|----------------------------------|
C/--------------------------------|----------------------------------|
         I know you're........

Play this two times. 

Verse 2:
Elec. Gtr.(Chad)
       C#m         |        A      |   B     |     E5
D/---------------------------------|----------0-0-0--0---0-----------|
A/---5--5---5--5-5---2--2---2--2-2-|-4--4---4-0-0-0--0---0-----------|
F/---6--6---6--6-6---2--2---2--2-2-|-4--4---4-4-4-4--4---4-----------|
C/---6--6---6--6-6---2--2---2--2-2-|-4--4---4-2-2-2--2---2-----------|
G/---4--4---4--2-2-----------------|-2--2---2-2-2-2--2---2-----------|
C/---------------------------------|----------2-2-2--2---2-----------|

       C#m         |        A      |   B     |     E5
D/---------------------------------|----------0----0--0-0-0----------|
A/---5--5---5--5-5---2--2---2--2-2-|-4--4---4-0----0--0-0-0----------|
F/---6--6---6--6-6---2--2---2--2-2-|-4--4---4-4----4--4-4-4----------|
C/---6--6---6--6-6---2--2---2--2-2-|-4--4---4-2----2--2-2-2----------|
G/---4--4---4--2-2-----------------|-2--2---2-2----2--2-2-2----------|
C/---------------------------------|----------2----2--2-2-2----------|
Play it two times as the first verse.

Lead verse:
Acoust. Gtr.(Ryan)
Play it only in the third and fourth part of the verse.

Pre Chorus:
Both Gtrs.(Chad, Ryan)
It's like the first.

Chorus:
Both Gtrs. (Chad, Ryan)
The first time of chorus is like the first. But in the second you play this!
         A        |      E5       |      B       |     F#5
D/------------------0--0--0--0-0--|----------------------------------|
A/---2--2--2--2-2---0--0--0--0-0--|-4--4--4--4-4---7--7--7--7-7------|
F/---2--2--2--2-2---4--4--4--4-4--|-4--4--4--4-4---6--6--6--6-6------|
C/---2--2--2--2-2---2--2--2--2-2--|-4--4--4--4-4---4--4--4--4-4------|
G/---0--0--0--0-0---2--2--2--2-2--|-2--2--2--2-2---4--4--4--4-4------|
C/------------------2--2--2--2-2--|----------------4--4--4--4-4------|
         Someday, Somehow......       I'm gonna make it alright...
This is the guitar isn't here.
2. Elec. Gtr. (Clean tone) 
D/---------------4----------------|----------------------------------|
A/---------5----------------------|-------5--------------------------|
F/---4--6-----6-------------------|-4--6-----6--7--------------------|
C/--------------------------------|----------------------------------|
G/--------------------------------|----------------------------------|
C/--------------------------------|----------------------------------|
         Someday, Somehow..

Both gtrs.(Chad, Ryan)
         A        |       B       |      C#m     |       B
D/--------------------------------|----------------0--0--0--0-0------|
A/---2--2--2--2-2---4--4--4--4-4--|-5--5--5--5-5---0--0--0--0-0------|
F/---2--2--2--2-2---4--4--4--4-4--|-6--6--6--6-6---4--4--4--4-4------|
C/---2--2--2--2-2---4--4--4--4-4--|-6--6--6--6-6---2--2--2--2-2------|
G/---0--0--0--0-0---2--2--2--2-2--|-4--4--4--4-4---2--2--2--2-2------|
C/--------------------------------|----------------2--2--2--2-2------|
         I know you're wondering when....
                                    You're the only one who knows thaaaaaa..
                                                   
2. Elec. Gtr.(Clean tone)                          
D/--------------4--|--------4-----                 
A/---------5---------------5------                 
F/---4--6----6------4--6-----6----                
C/--------------------------------                 
G/--------------------------------|                
C/--------------------------------|                 
                                    You're the only one who knows thaaaaaa..

Solo:
Elec. Gtr.(Chad)
Ryan play the chords above the solo tab. It's the same like in the chorus.
     A           E5           B         F#5           
D/--------------------------|----------------------|
A/--------------------------|----------------------|
F/------------------------- |----------------------|
C/------11--13--13-14----11-|--11--13--13-14----11-|
G/---9----------------14----|----------------14----|
C/--------------------------|----------------------|

     A       B      C#m      B    
D/-------------------------------|
A/-------------------------------|
F/-------------------------------|
C/-9-11---13---11---13-14---13-14|
G/-------------------------------|
C/-------------------------------|

     A                          E5
D/--------------11-11-11-12-12--------14--14-11-11-12-12---|
A/---14--14--14----------------12-12-----------------------|
F/---------------8--8--8--9--9--------11--11--8--8--9--9---|
C/---11--11--11----------------9--9------------------------|
G/---------------------------------------------------------|
C/---------------------------------------------------------|

     B                          F#m
D/---------------11-11-11-12-12--------16--16--12-12-14-12-|
A/---14--14--14-----------------12-12----------------------|
F/---------------8--8--8--9--9---------13--13--9--9--11--9-|
C/---11--11--11-----------------9--9-----------------------|
G/---------------------------------------------------------|
C/---------------------------------------------------------|

     A                 B             E5
D/---------11--12---------14----16---14--------------------|
A/---14-------------12-------------------------------------|
F/---------8----9---------11----13---11--------------------|
C/---11--------------9-------------------------------------|
G/---------------------------------------------------------|
C/-------------------------------------------------------- |
Tap to rate this tab
 
# A B C D E F G H I J K L M N O P Q R S T U V W X Y Z