Song name
# A B C D E F G H I J K L M N O P Q R S T U V W X Y Z

Nickelback - Saturday Nights Alright For Fighting tab

-----------------------------------------------------------------------------
              Saturday Night's Alright (For Fighting)- Nickelback
-----------------------------------------------------------------------------
Tabbed by: Erin Coltman
Email:EJ2006@hotmail.co.uk

Tuning:DADGBe

Order: 
Intro
Verse X2
Pre-Chorus
Chorus
Verse X2
Pre-Chorus
Chorus
Bridge (+ Solo)
Pre-Chorus
Chorus
Outro

Intro
e|-------------------------------------------------------------------------|
B|-10-10-9--x-10-10-9-x-10-10-9----x-x-8-8-7-x-8-8-7-----------------------|
G|--9--9-9--x-9--9--9-x-9--9--9----x-x-7-7-7-x-7-7-7-----------------------|
D|-------------------------------------------------------------------------|
A|-------------------------------------------------------------------------|
D|-------------------------------------------------------------------------|

Verse (X2)
e|-------------------------------------------------------------------------|
B|-------------------------------------------------------------------------|
G|-------------------------------------------------------------------------|
D|-7--x-x-x-x-x-x-x-x-x-x-x-x-x--7\5--x-x-x-x-x-x-x-x-x-x-x-x-x------------|
A|-7--x-x-x-x-x-x-x-x-x-x-x-x-x--7\5--x-x-x-x-x-x-x-x-x-x-x-x-x------------|
D|-7--x-x-x-x-x-x-x-x-x-x-x-x-x--7\5--x-x-x-x-x-x-x-x-x-x-x-x-x------------|

e|-------------------------------------------------------------------------|
B|-------------------------------------------------------------------------|
G|-------------------------------------------------------------------------|
D|-5p0-x-x-x-x-x-x-x-x-x-x-x-x-x--0h7--x-x-x-x-x-x-x-x-x-x-x-x-x---7-7-----|
A|-5p0-x-x-x-x-x-x-x-x-x-x-x-x-x--0h7--x-x-x-x-x-x-x-x-x-x-x-x-x---7-7-----|
D|-5p0-x-x-x-x-x-x-x-x-x-x-x-x-x--0h7--x-x-x-x-x-x-x-x-x-x-x-x-x---7-7-----|

Pre-Chorus

e|-------------------------------------------------------------------------|
B|-------------------------------------------------------------------------|
G|-------------------------------------------------------------------------|
D|-222222222222222222222222------------------------------------------------|
A|-222222222222222222222222------------------------------------------------|
D|-222222222222222222222222------------------------------------------------|

Chorus Part 1 (X2)
e|-------------------------------------------------------------------------|
B|-------------------------------------------------------------------------|
G|----------------555555555555555------------------------------------------|
D|-00000000000000-555555555555555-555555555555555-000000000000000----------|
A|-00000000000000-333333333333333-555555555555555-000000000000000----------|
D|-00000000000000-----------------555555555555555-000000000000000----------|

Chorus Part 2
e|-------------------------------------------------------------------------|
B|-------------------------------------------------------------------------|
G|----------------7-x-5-x--------------------------------------------------|
D|-77777777777777-7-x-5-x-9-x-7-7777777-xxxxxxx----------------------------|
A|-77777777777777-5-x-3-x-9-x-7-7777777-xxxxxxx----------------------------|
D|-77777777777777---------9-x-7-7777777-xxxxxxx----------------------------|


Bridge (X2)
e|-------------------------------------------------------------|
B|--8-8-7-x--8--8-7-x--8--8-7--x-x-6-6-5-x-6-6-5-x-6-6-5--x-x--|
G|--7-7-7-x--7--7-7-x--7--7-7--x-x-5-5-5-x-5-5-5-x-5-5-5--x-x--|
D|-------------------------------------------------------------|
A|-------------------------------------------------------------|
D|-------------------------------------------------------------|

e|----------------------------------------------------------------|
B|-13-13-12-x--13-13-12-x--13-13-12--x-x-8-8-7-x-8-8-7-x-8-8-7--\-|
G|-12-12 12-x--12-12-12-x--12-12-12--x-x-7-7-7-x-7-7-7-x-7-7-7--\-|
D|----------------------------------------------------------------|
A|----------------------------------------------------------------|
D|----------------------------------------------------------------|

Solo (Played on the repeat of the bridge)
e|-21~-19-18-17--17-18-17--17-18-17--17-18-17-15--15------|
B|-------------20--------20--------20-----------17--18~~~-|
G|--------------------------------------------------------|
D|--------------------------------------------------------|
A|--------------------------------------------------------|
D|--------------------------------------------------------|

e|15---15-----15~~--12-16-12--12-14-15-14-12----------------------------------|
B|--18~--18~~---------------15--------------15-14-12-14-12-11-12-11-12--------|
G|--------------------------------------------------------------------14-12---|
D|----------------------------------------------------------------------------|
A|----------------------------------------------------------------------------|
D|----------------------------------------------------------------------------|

e|--12--------------------------------------------------------------------|
B|----12-11-12-11--11-----------------------------------------------------|
G|14-------------14--14-12--------14-12-13--------------------------------|
D|------------------------14-12-14---------14--12-------------------------|
A|-------------------------------------------------14--13--12--11--10--9--|
D|------------------------------------------------------------------------|


Outro
e|------------------------------------------------------------------|
B|------------------------------------------------------------------|
G|------------------555-xx-555-xx-555-------------------------------|
D|000-xx-000-xx-000-555-xx-555-xx-555-555-xx-555-xx-555-00000000000-|
A|000-xx-000-xx-000-333-xx-333-xx-333-555-xx-555-xx-555-00000000000-|
D|000-xx-000-xx-000-------------------555-xx-555-xx-555-00000000000-|

e|------------------------------------------------------------------|
B|------------------------------------------------------------------|
G|------------------555-xx-555-xx-555-------------------------------|
D|000-xx-000-xx-000-555-xx-555-xx-555-555-xx-555-xx-555-00000000000-|
A|000-xx-000-xx-000-333-xx-333-xx-333-555-xx-555-xx-555-00000000000-|
D|000-xx-000-xx-000-------------------555-xx-555-xx-555-00000000000-|

e|-----------------------------------------------------------------------------|
B|-----------------------------------------------------------------------------|
G|------------------555-xx-555-xx-555------------------------------------------|
D|000-xx-000-xx-000-555-xx-555-xx-555-555-xx-555-xx-555-00000000000-xxxxxx-0~--|
A|000-xx-000-xx-000-333-xx-333-xx-333-555-xx-555-xx-555-00000000000-xxxxxx-0~--|
D|000-xx-000-xx-000-------------------555-xx-555-xx-555-00000000000-xxxxxx-0~--|


| /  slide up
| \  slide down
| h  hammer-on
| p  pull-off
| ~  vibrato
| +  harmonic
| x  Mute note
============================================================================
Tap to rate this tab
# A B C D E F G H I J K L M N O P Q R S T U V W X Y Z