Song name
# A B C D E F G H I J K L M N O P Q R S T U V W X Y Z

Nickelback - Something In Your Mouth tab

Nickelback - Something In Your Mouth

Tuning: Drop D (DADGHe)

Intro Part 1 (Clean)

E|---------------------------------------------------------------------------|
H|---------------------------------------------------------------------------|
G|---------------------------------------------------------------------------|
D|---------------------------------------------------------------------------|
A|-13\3--00----3-------3-------3-------5--00----3-------3-----5-----3--5-4-3-|
D|-13\3--00-5-----0-5-----0-5-----0-3-----00-5-----0-5---------3s------5-4-3-|

Intro Part 2 (Distortion)

E|--------------------------------------------------------------------------------|
H|--------------------------------------------------------------------------------|
G|--------------------------------------------------------------------------------|
D|--------------------------------------------------------------------------------|
A|-00----3-xx-------3-xx------3-xx-------5--00----3-xx------3------5-----3--5-4-3-|
D|-00-5----xx--0-5----xx-0-5----xx--0-3-----00-5----xx--0-5---------3s------5-4-3-|

Verse 1 (Breaks)


After "...but you'd pay her just to touch it, come on"
E|------------------------------------------------------------------------------------------------|
H|------------------------------------------------------------------------------------------------|
G|------------------------------------------------------------------------------------------------|
D|------------------------------------------------------------------------------------------------|
A|-13\3--3--5-4-3--00----3-xx-------3-xx------3-xx-------5--00----3-xx------3------5-----3--5-4-3-|
D|-13\3-----5-4-3--00-5----xx--0-5----xx-0-5----xx--0-3-----00-5----xx--0-5---------3s------5-4-3-|

After "...she'd be gone before you hollered, come on"
E|------------------------------------------------------------------------------------------------|
H|------------------------------------------------------------------------------------------------|
G|------------------------------------------------------------------------------------------------|
D|------------------------------------------------------------------------------------------------|
A|-13\3--3--5-4-3--00----3-xx-------3-xx------3-xx-------5--00----3-xx------3------5-----3--5-4-3-|
D|-13\3-----5-4-3--00-5----xx--0-5----xx-0-5----xx--0-3-----00-5----xx--0-5---------3s------5-4-3-|

After "...ain't it funny and the hunny wanted you all alone"
E|----------------------------------------------|
H|----------------------------------------------|
G|----------------------------------------------|
D|----------------------------------------------|
A|-0/13--00----3-xx-------3-xx---5-----3--5-4-3-|
D|-0/13--00-5----xx--0-5----xx-----3s-----5-4-3-|

Refrain

E|--------------------------------------------------------------------------------|
H|--------------------------------------------------------------------------------|
G|--------------------------------------------------------------------------------|
D|--------------------------------------------------------------------------------|
A|-00----3-xx-------3-xx------3-xx-------5--00----3-xx------3------5-----3--5-4-3-|
D|-00-5----xx--0-5----xx-0-5----xx--0-3-----00-5----xx--0-5---------3s------5-4-3-|

E|--------------------------------------------------------------------------------|
H|--------------------------------------------------------------------------------|
G|--------------------------------------------------------------------------------|
D|--------------------------------------------------------------------------------|
A|-00----3-xx-------3-xx------3-xx-------5--00----3-xx------3------5-----3--5-4-3-|
D|-00-5----xx--0-5----xx-0-5----xx--0-3-----00-5----xx--0-5---------3s------5-4-3-|


"You're so much cooler..."
E|---------------------------------|
H|---------------------------------|
G|--5-55-5-5-\3/5-55r--------------|
D|--5-55-5-5-\3/5-55r--3a-5-55-5-3-|
A|--3-33-3-3-\1/3-33r--3a-5-55-5-3-|
D|---------------------3a-5-55-5-3-|

E|--------------------------------------------------------------------------------|
H|--------------------------------------------------------------------------------|
G|--------------------------------------------------------------------------------|
D|--------------------------------------------------------------------------------|
A|-00----3-xx-------3-xx------3-xx-------5--00----3-xx------3------5-----3--5-4-3-|
D|-00-5----xx--0-5----xx-0-5----xx--0-3-----00-5----xx--0-5---------3s------5-4-3-|


Verse 2 (Breaks)

After "...there's no end to it, so baby, come on"
E|--------------------------------------------------------|
H|--------------------------------------------------------|
G|--------------------------------------------------------|
D|--------------------------------------------------------|
A|-13\3--3-5-4-3--00----3-xx-------3-xx------3-xx-------5-|
D|-13\3----5-4-3--00-5----xx--0-5----xx-0-5----xx--0-3----|

After "scent of every flower in the desert, come on..."
E|------------------------------------------------------------------------------------------------|
H|------------------------------------------------------------------------------------------------|
G|------------------------------------------------------------------------------------------------|
D|------------------------------------------------------------------------------------------------|
A|-13\3--3--5-4-3--00----3-xx-------3-xx------3-xx-------5--00----3-xx------3------5-----3--5-4-3-|
D|-13\3-----5-4-3--00-5----xx--0-5----xx-0-5----xx--0-3-----00-5----xx--0-5---------3s------5-4-3-|

After "...ain't it funny and the hunny wanted you all alone"
E|----------------------------------------------|
H|----------------------------------------------|
G|----------------------------------------------|
D|----------------------------------------------|
A|-0/13--00----3-xx-------3-xx---5-----3--5-4-3-|
D|-0/13--00-5----xx--0-5----xx-----3s-----5-4-3-|


Refrain

E|--------------------------------------------------------------------------------|
H|--------------------------------------------------------------------------------|
G|--------------------------------------------------------------------------------|
D|--------------------------------------------------------------------------------|
A|-00----3-xx-------3-xx------3-xx-------5--00----3-xx------3------5-----3--5-4-3-|
D|-00-5----xx--0-5----xx-0-5----xx--0-3-----00-5----xx--0-5---------3s------5-4-3-|

E|--------------------------------------------------------------------------------|
H|--------------------------------------------------------------------------------|
G|--------------------------------------------------------------------------------|
D|--------------------------------------------------------------------------------|
A|-00----3-xx-------3-xx------3-xx-------5--00----3-xx------3------5-----3--5-4-3-|
D|-00-5----xx--0-5----xx-0-5----xx--0-3-----00-5----xx--0-5---------3s------5-4-3-|


"You're so much cooler..."
E|---------------------------------|
H|---------------------------------|
G|--5-55-5-5-\3/5-55r--------------|
D|--5-55-5-5-\3/5-55r--3a-5-55-5-3-|
A|--3-33-3-3-\1/3-33r--3a-5-55-5-3-|
D|---------------------3a-5-55-5-3-|


Bridge

x8
E|-------------------------|
H|-------------------------|
G|-------------------------|
D|-00-33-00---3-3-00-55-33-|
A|----------3--------------|
D|-------------------------|

x2
E|---------------------------|
H|---------------------------|
G|---------------------------|
D|-3-000-3-000-3-000-3-000-3-|
A|---------------------------|
D|---------------------------|


Refrain

"You naughty thing..."
E|---------------------------------------------------------------------|
H|---------------------------------------------------------------------|
G|---------------------------------------------------------------------|
D|---------------------------------------------------------------------|
A|-00----3-xx-------3-xx------3-xx-------5--00----3-xx------3------5---|
D|-00-5----xx--0-5----xx-0-5----xx--0-3-----00-5----xx--0-5---------3s-|

"I love the way you dance with everybody"
E|--------------------------------------------------------------------------------|
H|--------------------------------------------------------------------------------|
G|--------------------------------------------------------------------------------|
D|--------------------------------------------------------------------------------|
A|-00----3-xx-------3-xx------3-xx-------5--00----3-xx------3------5-----3--5-4-3-|
D|-00-5----xx--0-5----xx-0-5----xx--0-3-----00-5----xx--0-5---------3s------5-4-3-|

"You naughty thing..."
E|--------------------------------------------------------------------------------|
H|--------------------------------------------------------------------------------|
G|--------------------------------------------------------------------------------|
D|--------------------------------------------------------------------------------|
A|-00----3-xx-------3-xx------3-xx-------5--00----3-xx------3------5-----3--5-4-3-|
D|-00-5----xx--0-5----xx-0-5----xx--0-3-----00-5----xx--0-5---------3s------5-4-3-|

"I love the way you dance with everybody"
E|--------------------------------------------------------------------------------|
H|--------------------------------------------------------------------------------|
G|--------------------------------------------------------------------------------|
D|--------------------------------------------------------------------------------|
A|-00----3-xx-------3-xx------3-xx-------5--00----3-xx------3------5-----3--5-4-3-|
D|-00-5----xx--0-5----xx-0-5----xx--0-3-----00-5----xx--0-5---------3s------5-4-3-|


"You're so much cooler..."
E|----------------------------------------|
H|----------------------------------------|
G|--5-55-5-5-\3/5-55r---------------------|
D|--5-55-5-5-\3/5-55r--3a-5-55-5-3--------|
A|--3-33-3-3-\1/3-33r--3a-5-55-5-3---13/1-|
D|---------------------3a-5-55-5-3---13/1-|


r - ring out
a - don't let ring out
\ - slide up
/ - slide down
s - let "swing" (up-down-up-down-up-down...)
x - death notes
Tap to rate this tab
# A B C D E F G H I J K L M N O P Q R S T U V W X Y Z