Song name
# A B C D E F G H I J K L M N O P Q R S T U V W X Y Z

Nickelback - Burn It To The Ground tab

Nickelback-Burn It To The Ground
Dark Horse-Track 2
Guitar Tab
Tabbed By Ryan Ryngaert
Tuning-Drop B Tuning(B, F#, B, E, G#, C#)

Intro Pt. 1(Play 2 Times)                                                    
C#----------------------------------------------------------------|
G#----------------------------------------------------------------|
E ----------------------------------------------------------------|
B ----------------------------------------------------------------|
F#-----------------------------------------------------8-------10-|
B -19\-12-0-0-15-0-0-12-0-0-15-0-0-12-0-0-15-0-0-10h12---12p10----|

C#-------------------------------------------------------------|
G#-------------------------------------------------------------|
E -------------------------------------------------------------|
B -------------------------------------------------------------|
F#-------------------------------------------------15-------17-|
B -12-0-0-15-0-0-12-0-0-15-0-0-12-0-0-15-0-0-17h19----19p17----|

Intro Pt. 2(Play 2 Times)
C#-------------------------------------------------------|
G#-------------------------------------------------------|
E -------------------------------------------------------|
B -------------------------------------------------------|
F#-------------------------------------------------------|
B -0-0-0-10h12-0-0-0-10h12-0-0-0-10h12-17p15-0-17p15-17/-|

Verse Pt1 (Play Twice) 1st time and 3rd     2nd time and 4th
C#-------------------------------------|-----------------------|Go To
G#-------------------------------------|-----------------------|Verse 
E -------------------------------------|-----------------------|Part 2
B -------------------------------------|-----------------------|For 
F#-----------------------8--------10---|-----------15-------17-|Both 
B -----------------10h12---12p10-------|-----17h19----19p17----|Sections

Verse Part 2 (Repeat To Verse Part 1)
C#-------------------------------------------------------|
G#-------------------------------------------------------|
E -------------------------------------------------------|
B -------------------------------------------------------|
F#-------------------------------------------------------|
B -0-0-0-10h12-0-0-0-10h12-0-0-0-10h12-17p15-0-17p15-17/-|

Chorus (Play 1 Time) Quarter Notes
C#---------------------------------------------------|
G#---------------------------------------------------|
E -7-7-7-7-7-7-7-7-5-5-5-5-5-5-5-5-------------------|
B -7-7-7-7-7-7-7-7-5-5-5-5-5-5-5-5-5-5-5-5-3-3-3-----|
F#-5-5-5-5-5-5-5-5-3-3-3-3-3-3-3-3-5-5-5-5-3-3-3-----|
B ---------------------------------5-5-5-5-3-3-3-10/-|

Post-Chorus (Play 2 Times)
C#-------------------------------------------------------|
G#-------------------------------------------------------|
E -------------------------------------------------------|
B -------------------------------------------------------|
F#-------------------------------------------------------|
B -0-0-0-10h12-0-0-0-10h12-0-0-0-10h12-17p15-0-17p15-17/-|

Verse Pt1 (Play Twice) 1st time and 3rd     2nd time and 4th
C#-------------------------------------|-----------------------|Go To
G#-------------------------------------|-----------------------|Verse 
E -------------------------------------|-----------------------|Part 2
B -------------------------------------|-----------------------|For 
F#-----------------------8--------10---|-----------15-------17-|Both 
B -----------------10h12---12p10-------|-----17h19----19p17----|Sections

Verse Part 2 (Repeat To Verse Part 1)
C#-------------------------------------------------------|
G#-------------------------------------------------------|
E -------------------------------------------------------|
B -------------------------------------------------------|
F#-------------------------------------------------------|
B -0-0-0-10h12-0-0-0-10h12-0-0-0-10h12-17p15-0-17p15-17/-|

Chorus (Play 1 Time) Quarter Notes
C#---------------------------------------------------|
G#---------------------------------------------------|
E -7-7-7-7-7-7-7-7-5-5-5-5-5-5-5-5-------------------|
B -7-7-7-7-7-7-7-7-5-5-5-5-5-5-5-5-5-5-5-5-3-3-3-----|
F#-5-5-5-5-5-5-5-5-3-3-3-3-3-3-3-3-5-5-5-5-3-3-3-----|
B ---------------------------------5-5-5-5-3-3-3-10/-|

Post-Chorus (Play 2 Times)
C#-------------------------------------------------------|
G#-------------------------------------------------------|
E -------------------------------------------------------|
B -------------------------------------------------------|
F#-------------------------------------------------------|
B -0-0-0-10h12-0-0-0-10h12-0-0-0-10h12-17p15-0-17p15-17/-|

Bridge
C#---------------------------------|
G#---------------------------------|
E ---------------------------------|
B -7-5-----------3-7-5-------------|
F#-5-3-7-5-7-9-3---5-3--7-5-7-9-3/-|
B -----5-3-5-7----------5-3-5-7----|

Solo
Can't figure it out

Breakdown (Play Four Times)
C#---------------------------------------------------------------|
G#---------------------------------------------------------------|
E ---------------------------------------------------------------|
B ---------------------------------------------------------------|
F#---------------------------------------------------------------|
B ---------0-0-0-10h12-0-0-0-10h12-0-0-0-10h12-17p15-0-17p15-17/-|

Chorus (Play 2 Times) Quarter Notes
C#---------------------------------------------------|Add In Riff 
G#---------------------------------------------------|In-between 
E -7-7-7-7-7-7-7-7-5-5-5-5-5-5-5-5-------------------|Chorus
B -7-7-7-7-7-7-7-7-5-5-5-5-5-5-5-5-5-5-5-5-3-3-3-----|
F#-5-5-5-5-5-5-5-5-3-3-3-3-3-3-3-3-5-5-5-5-3-3-3-----|
B ---------------------------------5-5-5-5-3-3-3-10/-|

C#--------------------------------------------------------|
G#--------------------------------------------------------|
E --------------------------------------------------------|
B --------------------------------------------------------|
F#--------------------------------------------------------|
B --0-0-0-10h12-0-0-0-10h12-0-0-0-10h12-17p15-0-17p15-17/-|

Ending
C#-----------------------------------------------------------------|
G#-----------------------------------------------------------------|
E -----------------------------------------------------------------|
B -----------------------------------------------------------------|
F#-------------------------6-5-4-3-2-0-6-5-4-3-2-0-6-5-4-3-2-0-0-0-|
B -5-3-0-5-3-0-5-3-0-5-3-0-6-5-4-3-2-0-6-5-4-3-2-0-6-5-4-3-2-0-0-0-|
Tap to rate this tab
 
# A B C D E F G H I J K L M N O P Q R S T U V W X Y Z