Song name
# A B C D E F G H I J K L M N O P Q R S T U V W X Y Z

Nickelback - How You Remind Me Acoustic tab

Nickelback
How You Remind Me (Acoustic)

Posted by Scott Erlichman
scott@erlichman.biz

This is my first tab, but it sounds right on.


Verse A

   C     C/Bb    A#    A#/F
E|-x--x--x--x----1--1--1--1---------------------|
B|-x--x--x--x----1--1--1--1---------------------|
G|-5-5--5--5----3--3--3--3---------------------|
D|-5-5--5--5----3--3--3--3---------------------|
A|-7-7--7--7----1--1--1--1---------------------|
E|-8--8--6--6----------1--1---------------------|

Verse A1

E|----------------------------------------------|
B|----------------------------------------------|
G|------5---------------------------------------|
D|----5--------8-------10-----------------------|
A|--3--------6-------8--------------------------|
E|---------4------/6----------------------------|

Verse A2

   C     C/Bb    A#    A#/F
E|-x--x--x--x----1--1--1--1---------------------|
B|-x--x--x--x----1--1--1--1---------------------|
G|-5-5--5--5----3--3--3--3---------------------|
D|-5-5--5--5----3--3--3--3---------------------|
A|-7-7--7--7----1--1--1--1---------------------|
E|-8--8--6--6----------1------------------------|

Chorus A
   C     Eb      Bb    F
E|-x--x--x--x----x--x--1--1---------------------|
B|-5--5--x--x----3--3--1--1---------------------|
G|-5-5--4--4----3--3--2--2---------------------|
D|-5-5--3--3----3--3--3--3---------------------|
A|-3-3--1--1----1--1--3--3---------------------|
E|-x--x--1--1----x--x--1--1---------------------|

Chorus A1
   C     Eb      Bb
E|-x--x--x--x----x------------------------------|
B|-5--5--x--x----3------------------------------|
G|-5-5--4--4----3------------------------------|
D|-5-5--3--3----3------------------------------|
A|-3-3--1--1----1------------------------------|
E|-x--x--1--1----x------------------------------|

Chorus B

   C     Eb      Bb    A#/F
E|-x--x--x--x----x--x--x--x---------------------|
B|-5--5--x--x----3--3--3--3---------------------|
G|-5-5--4--4----3--3--3--3---------------------|
D|-5-5--3--3----3--3--3--3---------------------|
A|-3-3--1--1----1--1--1--1---------------------|
E|-x--x--1--1----x--x--1--1---------------------|

Chorus B1

E|----------------------------------------------|
B|----------------------------------------------|
G|------5-----------------3---------------------|
D|----5---5------5------3---3------3------------|
A|--3----------3---3--1----------1--------------|
E|-----------1-----------------1----------------|


Order to play each part

Verse A
Verse A
Verse A1
Verse A
Verse A
Chorus A
Chorus A
Chorus A
Chorus A
Chorus B
Chorus B
Verse A
Verse A
Verse A
Verse A
Chorus A
Chorus A
Chorus A
Chorus A
Chorus B1
Chorus B1
Verse A2
Verse A
Verse A1
Verse A1
Verse A
Verse A
Chorus A
Chorus A1
Chorus A
Chorus A
Chorus B
Chorus B
Chorus B
Chorus B
Tap to rate this tab
# A B C D E F G H I J K L M N O P Q R S T U V W X Y Z