Song name
# A B C D E F G H I J K L M N O P Q R S T U V W X Y Z

Nickelback - Id Come For You tab

Intro

E----7---10---9--7---       E----7----10----9---7-|
B--7---7----7--------       B---------------------|
G--------------------       G--9---9-----9--------|
D-------------------- x3    D---------------------|
A--------------------       A---------------------|
E--------------------       E---------------------|

Verse

Guitar 1

E----7---10---9--7---       E----7----10----9---7-|
B--7---7----7--------       B---------------------|
G--------------------       G--9---9-----9--------|
D-------------------- x3    D---------------------|
A--------------------       A---------------------|
E--------------------       E---------------------|

E----7---10---9--7---       E----7----10---------|
B--7---7----7--------       B--------------------|
G--------------------       G--9---9-------------|
D-------------------- x3    D--------------------|
A--------------------       A--------------------|
E--------------------       E--------------------|

Guitar 2
x2 Play constantly and change when you hear it
E--0---0---0---0---0---0---0---0---0---0---0---0---0---0---0---0---|
B--3---3---3---3---3---3---3---3---3---3---3---3---3---2---2---2---|
G--4---4---4---4---0---0---0---0---2---2---2---2---2---2---2---2---|
D------------------------------------------------------------------|
A------------------------------------------------------------------|
E------------------------------------------------------------------|

Pre Chorus

Figure 1
E----------------------------------------------------------|
B--------3---------3------3---------3----------5-----3-----|
G-----0-----0---------0----------2---------2------2--------|
D--2------------0------------0--------2--------------------| x4
A----------------------------------------------------------|
E----------------------------------------------------------|

E------------------|
B----------5---5---|
G------2-----------|
D---2--------------|
A------------------|
E------------------|

Chorus

Figure 2
E----------------------------------|
B------------------8-7-------7-----|
G--7-7-9-7-9-7-9-7-----9-7-7---9-7-|
D----------------------------------| x12
A----------------------------------|
E----------------------------------|

Interlude 1

Figure 3
E----------------------------------------------------------------|
B-------7--8--8---7-----------7--8--8---7----------7--8--8---7---|
G--7------------7---7---7-------------7---7---7------------7---7-|
D-----7--------------------7---------------------7---------------|
A----------------------------------------------------------------|
E----------------------------------------------------------------|

E------------------------------|
B--8--6h8p6------10--8h10p8----|
G------------5--------------7--|
D------------------------------|
A------------------------------|
E------------------------------|

Verse 2
E----7---10---9--7---       E----7----10---------|
B--7---7----7--------       B--------------------|
G--------------------       G--9---9-------------|
D-------------------- x3    D--------------------|
A--------------------       A--------------------|
E--------------------       E--------------------|


Pre Chorus
(Same As Above)

Chorus
(Same As Above)

Interlude 2
Figure 2 (x4)
Figure 3 (x1)

End Chorus
Figure 2 (x12)

CHORDS

Intro
Bm  G  D  A

Verse 1
              B                        G
Just one more moment, thats all thats needed
             D                   A
Like wounded soldiers in need of healing
           Bm                   G
Time to be honest, this time Im pleading
                  D                    A
Please dont dwell on it, cause I didnt mean it

Pre Chorus
Em            G              D          A
   I cant believe I said Id lay our love on the ground
Em                 G               D          A            Em
   But it doesnt matter cause Ive made it up, forgive me now
       G            D          A
Every day I spend away my souls inside out
Em                G             D         A
   Gotta be some way that I can make it up to you now, somehow

By now you'd know that

Chorus
D                Bm
  Id come for you
                 A                    G          A
No one but you,  yes Id come for you, but only if you told me to
D                     Bm
  And Id fight for you, Id lie, its true
A                    F
Give my life for you
            G
You know Id always come for you

Interlude 1
D  Bm  A  F  G  D

Verse 2
            Bm                G
I was blindfolded, but now Im seeing
            D                 A
My mind was closing, now Im believing

Pre Chorus
Em             G               D           A
   I finally know just what it means to let someone in
Em             G              D          A          Em
   To see the side of me that no one does or ever will
           G             D            A
So if youre ever lost and find yourself all alone
Em               G            D             A
   Id search forever just to bring you home, here and now, this I vow

By now you know that

Chorus
D               Bm
 Id come for you
               A                    G           A
No one but you, yes Id come for you, but only if you told me to
D                     Bm
  And Id fight for you, Id lie, its true
A                     F
 Give my life for you
            G
You know Id always come for you


Interlude 2
Bb              C
   You know Id always come for you
D                           Bm                                   A
  No matter what gets in my way, as long as theres still life in me
                        F               G
No matter what remember, you know Ill always come for you
Dsus2                  Bm(4)           Asus2
  Yes Id come for you, no one but you
                    G
Yes Id come for you, but only if you told me to

Chorus
D                    Bm                   A
  And Id fight for you, Id lie, its true

Give my life for you
F              G
  You know Ill always come for you
D                           Bm                                   A
  No matter what gets in my way, as long as theres still life in me
                        F               G
No matter what remember, you know I'll always come for you
D                                Bm                           A
  Id crawl across this world for you, do anything you want me to
                        F              G
No matter what remember   you know Ill always come for you
Bb              C                   D5
   You know Ill always come for you.
Tap to rate this tab
 
# A B C D E F G H I J K L M N O P Q R S T U V W X Y Z