Song name
# A B C D E F G H I J K L M N O P Q R S T U V W X Y Z

Nickelback - Too Bad tab

Howdy people. It's me again! I am - yet again - making a tab for 5-String Bass since 
Kroeger plays on five strigs. Duh! So anyways, Imma tab this out and tell me what you 
Happy playing. Love, Craig!

Verse:
G|----------------|----------------|----------------|----------------|
D|----------------|----------------|----------------|----------------|
A|----------------|----------------|----------------|----------------|
E|----------------|----------------|----------------|----------------|
B|------14\-------|------2-2~------|--6-6~----6-6~--|------4-2~------|

G|----------------|----------------|----------------|----------------|
D|----------------|----------------|----------------|----------------|
A|----------------|----------------|----------------|----------------|
E|----------------|----------------|----------------|----------------|
B|------1-1~------|------2-2~------|------6-6~-6-6--|-----13-11~-----|

G|----------------|----------------|----------------|----------------|
D|----------------|----------------|----------------|------REST------|
A|----------------|----------------|----------------|----------------|
C|----------------|----------------|----------------|----------------|
B|------1-1~------|------11~-------|------6-6~------|----------------|

chorus
G|--------------------------------------|
D|--------------------------------------|
A|--------------------------------------|
E|--------------------------------------| x2
B|-999999944444444--44h6-44h6-44h6-44h6-|

Verse:
G|----------------|----------------|----------------|----------------|
D|----------------|----------------|----------------|----------------|
A|----------------|----------------|----------------|----------------|
C|----------------|----------------|----------------|----------------|
B|------16\-------|------4-4~------|--6-6~----6-6~--|------6-4~------|

G|----------------|----------------|----------------|----------------|
D|----------------|----------------|----------------|----------------|
A|----------------|----------------|----------------|----------------|
E|----------------|----------------|----------------|----------------|
B|------1-1~------|------4-4~------|--6-6~----6-6~--|------6-3~------|

G|----------------|----------------|----------------|----------------|
D|----------------|----------------|----------------|----------------|
A|----------------|----------------|----------------|----------------|
E|----------------|----------------|----------------|----------------|
B|------1-1~------|------4-4~------|------6-6~-6-6--|-----13-11~-----|

G|----------------|----------------|----------------|----------------|
D|----------------|----------------|----------------|----------------|
A|----------------|----------------|----------------|----------------|
C|----------------|----------------|----------------|----------------|
B|------1-1~------|------11~-------|------6-6~------|----------------|

Chorus:
G|--------------------------------------|
D|--------------------------------------|
A|--------------------------------------|
C|--------------------------------------| x4
B|-9999999944444444-44h6-44h6-44h6-44h6-|
solo
F|----------------|----------------|----------------|----------------|
C|----------------|----------------|----------------|----------------|
G|----------------|----------------|----------------|----------------|
C|------0-0~------|------3-3~------|--5-5~----5-5~--|-------5-3~-----|x4

verse3
F|----------------|----------------|----------------|----------------|
C|----------------|----------------|----------------|----------------|
G|----------------|----------------|----------------|----------------|
C|------15\-------|------3-3~------|--5-5~----5-5~--|------5-3~------|

F|----------------|----------------|----------------|----------------|
C|----------------|----------------|----------------|----------------|
G|----------------|----------------|----------------|----------------|
C|------0-0~------|------3-3~------|--5-5~----5-5~--|------5-3~------|

F|----------------|----------------|----------------|----------------|
C|----------------|----------------|----------------|----------------|
G|----------------|----------------|----------------|----------------|
C|------0-0~------|------3-3~------|------5-5~-5-5--|-----12-10~-----|

F|----------------|----------------|----------------|----------------|
C|----------------|----------------|----------------|----------------|
G|----------------|----------------|----------------|----------------|
C|------0-0~------|------10~-------|------5-5~~-----|-------\--------|

chorus
F|--------------------------------------||
C|--------------------------------------||
G|--------------------------------------||
C|-8888888833333333-33h5-33h5-33h5-33h5-|| x4

outro
F|----------------|----------------|----------------|----------------|
C|----------------|----------------|----------------|----------------|
G|----------------|----------------|----------------|----------------|
C|------0-0~------|------3-3~------|--5-5~----5-5~--|-------5-3~-----|x2
Tap to rate this tab
 
# A B C D E F G H I J K L M N O P Q R S T U V W X Y Z