Song name
# A B C D E F G H I J K L M N O P Q R S T U V W X Y Z

Nickelback - Rockstar tab

-------------------------------------------------------------------------------
			     ROCKSTAR - Nickelback
-------------------------------------------------------------------------------
Tabbed by: NBR555
Email: nbr555@rambler.ru

Tuning: standard

Chords used:
   G     C     F     Fsus4  A#    D#
e|-3-----0-----1-----1--------------------------------------------|
B|-3-----1-----1-----1------3-----8-------------------------------|
G|-0-----0-----2-----3------3-----8-------------------------------|
D|-0-----2-----3-----3------3-----8-------------------------------|
A|-2-----3-----3-----1------1-----6-------------------------------|
E|-3-----------1--------------------------------------------------|

************************************
| /   slide up
| \   slide down
| *   palm muting
| h   hammer-on
| ~   vibrato
| x   Mute note
| b*  Bend to required pith
| r*  Bend Return to required pitch
************************************


Verse 1:  

acoustic guitar: play these chords
  G  C  F  G  G  C  F     G 
elec. guitar:
e|---...         -----|--------------------------------------|
B|---            -----|---6-6--------3-----------------------|
G|---            -----|-7--------5-3------5h3----------------|
D|---            -----|-----------------------5~-------------|
A|---            -----|--------------------------------------|
E|---            -----|--------------------------------------|


Verse 2:

acoustic guitar:
   G  C  F   G                   G  C  F      G
elec. guitar:
e|---... --|--------------------|---...  --|------------------3-------|
B|---    --|--6---6--6-6-6--6---|---     --|-8h6-----------------3----|
G|---    --|-7---7--------------|---     --|-----7--5--3-5--3------5--|
D|---    --|------------------5-|---     --|--------------------------|
A|---    --|--------------------|---     --|--------------------------|
E|---    --|--------------------|---     --|--------------------------|
             *   **                              *   * *    *

Pre-chorus 1:

acoustic guitar: Fsus4 C


Chorus 1:

   G                             A#                
e|-----------------------------|-------------------|
B|-----------------------------|-------------------|
G|----------------3------------|-3-------3---------|
D|-5-----------------5---3---5-|-----------5--3--5-|
A|-----------------------------|-------------------|
E|-----------------------------|-------------------|
elec. guitar2:
e|-----------------------------|-------------------|
B|-----------------------------|-------------------|
G|-12-12-12-12-x-12-12-12-12-x-|-3-3-3-x-3-3-3-3-x-|
D|-12-12-12-12-x-12-12-12-12-x-|-3-3-3-x-3-3-3-3-x-|
A|-10-10-10-10-x-10-10-10-10-x-|-1-1-1-x-1-1-1-1-x-|
E|-----------------------------|-------------------|

  C                    D#        F
B|-------------------|-------------------|
G|---------3---------|-3----5------------|
D|-5---------5--3--5-|----------3---/8---|
A|-------------------|-------------------|
E|-------------------|-------------------|
elec. guitar2:
e|-------------------|-------------------|
B|-------------------|-------------------|
G|-5-5-5-x-5-5-5-5-x-|-8-8-8-x-10101010x-|
D|-5-5-5-x-5-5-5-5-x-|-8-8-8-x-10101010x-|
A|-3-3-3-x-3-3-3-3-x-|-6-6-6-x-8-8-8-8-x-|
E|-------------------|-------------------|
repeat 2 times

then:

   A#    C       G                        Fsus4    C      G
e|-------------|--------------------------|-------------|-----------|
B|-------------|------------------------0-|-------------|-----------|
G|-3-----5-----|-12--12-12-12--12-12-12-0-|-3-----5-----|-12--------|
D|-3-----5-----|-12--12-12-12--12-12-12---|-3-----5-----|-12--------|
A|-1-----3-----|-10--10-10-12--12-12-12---|-1-----3-----|-10--------|
E|-------------|--------------------------|-------------|-----------|


Verse 3:

   G               C   F   G
e|---------------|---|---|---------------------------|
B|---------------|---|---|---8~-----6---8~---6-6-6---|
G|-------5b1.5~--|---|---|-7------5---7--------------|
D|-5-------------|---|---|-------------------------5-|
A|---------------|---|---|---------------------------|
E|---------------|---|---|---------------------------|

   G   C   F   G
e|--...   ---|------------------3-------|
B|--      ---|-8H6-----------------3----|
G|---      --|-----7--5--3-5--3------5--|
D|---      --|--------------------------|
A|---      --|--------------------------|
E|---      --|--------------------------|
                   *  *  *    *

Pre-chorus&Chorus 2: 

play similar as Pre-chorus&Chorus 1


Bridge:


  D#                            A#
e|-----------------------------|-----------------------------|
B|-----------------------------|-----------------------------|
G|-8--8--8--8-8-8--8-8-8-8-8-x-|-3--3--3--3-3-3--3-3-3-3-3-x-|
D|-8--8--8--8-8-8--8-8-8-8-8-x-|-3--3--3--3-3-3--3-3-3-3-3-x-|
A|-6--6--6--6-6-6--6-6-6-6-6-x-|-1--1--1--1-1-1--1-1-1-1-1-x-|
E|-----------------------------|-----------------------------|

  D#                            C           F
e|-----------------------------|-----------|------------------|
B|-----------------------------|-----------|------------------|
G|-8--8--8--8-8-8--8-8-8-8-8-x-|-5---------|------------------|
D|-8--8--8--8-8-8--8-8-8-8-8-x-|-5---------|-3----------------|
A|-6--6--6--6-6-6--6-6-6-6-6-x-|-3---------|-3----------------|
E|-----------------------------|-----------|-1----------------|


Chorus:

acoustic guitar: G A# C D# F

then play similar as Chorus 1.

Tap to rate this tab
# A B C D E F G H I J K L M N O P Q R S T U V W X Y Z