Song name
# A B C D E F G H I J K L M N O P Q R S T U V W X Y Z

Nickelback - See You At The Show tab

See You At The Show
Nickelback
The Long Road (2003)

See You At The Show: written by Chad Kroeger and Nickelback

GTR I - Drop B Tuning Electric (c#,G#,E,B,F#,B)
GTR II - Drop Db Tuning Electric (eb,Bb,Gb,Db,Ab,Db)
GTR III - Eb Tuning Acoustic (eb,Bb,Gb,Db,Ab,Eb)

Intro

   GTR II                                           
eb|--x-----------------x-----------0--0--3--3--0--0-|
Bb|--3-----------------1-----------1--1--1--1--1--1-|
Gb|--2-----------------2-----------2--2--2--2--2--2-|
Db|--0-----------------0-----------0--0--0--0--0--0-|
Ab|--0----------------------------------------------|
Db|--0----------------------------------------------|

   GTR II                                           
eb|--x-----------------x-----------0--0--3--3--0--0-|
Bb|--3-----------------1-----------1--1--1--1--1--1-|
Gb|--2-----------------2-----------2--2--2--2--2--2-|
Db|--0-----------------0-----------0--0--0--0--0--0-|
Ab|-------------------------------------------------|
Db|-------------------------------------------------|

   GTR II                                           
eb|--x-----------------x-----------0--0--3--3--0--0-|
Bb|--3-----------------1-----------1--1--1--1--1--1-|
Gb|--2-----------------2-----------2--2--2--2--2--2-|
Db|--0-----------------0-----------0--0--0--0--0--0-|
Ab|-------------------------------------------------|
Db|-------------------------------------------------|

   GTR II                                           
eb|--x----------------------------------------------|
Bb|--3----------------------------------------------|
Gb|--2----------------------------------------------|
Db|--0----------------------------------------------|
Ab|-------------------------------------------------|
Db|-------------------------------------------------|

   GTR II                                           
eb|-------------------------------------------------|
Bb|-------------------------------------------------|
Gb|-------------------------------------------------|
Db|-------------------------------------------------|
Ab|-------------------------------------------------|
Db|-------------------------------------------------|

Verse

   GTR III                                          
eb|--2----------------------------------------------|
Bb|--3----------------------------------------------|
Gb|--2----------------------------------------------|
Db|--0----------------------------------------------|
Ab|--0----------------------------------------------|
Eb|--0----------------------------------------------|

   GTR III                                          
eb|--3----------------------------------------------|
Bb|--3----------------------------------------------|
Gb|--0----------------------------------------------|
Db|--0----------------------------------------------|
Ab|--2----------------------------------------------|
Eb|--3----------------------------------------------|

   GTR III                                          
eb|--1-----------------------0----------------------|
Bb|--1-----------------------1----------------------|
Gb|--2-----------------------0----------------------|
Db|--3-----------------------2----------------------|
Ab|--3-----------------------3----------------------|
Eb|--x-----------------------x----------------------|

   GTR III                                          
eb|--3----------------------------------------------|
Bb|--3----------------------------------------------|
Gb|--0----------------------------------------------|
Db|--0----------------------------------------------|
Ab|--2----------------------------------------------|
Eb|--3----------------------------------------------|

   GTR III                                          
eb|--2----------------------------------------------|
Bb|--3----------------------------------------------|
Gb|--2----------------------------------------------|
Db|--0----------------------------------------------|
Ab|--0----------------------------------------------|
Eb|--0----------------------------------------------|

   GTR III                                          
eb|--3----------------------------------------------|
Bb|--3----------------------------------------------|
Gb|--0----------------------------------------------|
Db|--0----------------------------------------------|
Ab|--2----------------------------------------------|
Eb|--3----------------------------------------------|

   GTR III                                          
eb|--1-----------------------0----------------------|
Bb|--1-----------------------1----------------------|
Gb|--2-----------------------0----------------------|
Db|--3-----------------------2----------------------|
Ab|--3-----------------------3----------------------|
Eb|--x-----------------------x----------------------|

   GTR I
c#|-------------------------------------------------|
G#|-------------------------------------------------|
 E|-------------------------------------------------|
 B|--------------------------------x--x--------x--x-|
F#|--------------------------------x--x--------x--x-|
 B|--------------------------------x--x--------x--x-|
  |                                                 
  |GTR II                                           
eb|-------------------------------------------------|
Bb|-------------------------------------------------|
Gb|-------------------------------------------------|
Db|--------------------------------x--x--------x--x-|
Ab|--------------------------------x--x--------x--x-|
Db|--------------------------------x--x--------x--x-|
  |                                               
  |GTR III                                          
eb|--3----------------------------------------------|
Bb|--3----------------------------------------------|
Gb|--0----------------------------------------------|
Db|--0----------------------------------------------|
Ab|--2----------------------------------------------|
Eb|--3----------------------------------------------|

Chorus

   GTR I
c#|-------------------------------------------------|
G#|-------------------------------------------------|
 E|-------------------------------------------------|
 B|--2-----2-----2-----2-----5-----5-----5-----5----|
F#|--2-----2-----2-----2-----5-----5-----5-----5----|
 B|--2-----2-----2-----2-----5-----5-----5-----5----|
  |                                                 
  |GTR II                                           
eb|-------------------------------------------------|
Bb|-------------------------------------------------|
Gb|-------------------------------------------------|
Db|--0-----0-----0-----0-----3-----3-----3-----3----|
Ab|--0-----0-----0-----0-----3-----3-----3-----3----|
Db|--0-----0-----0-----0-----3-----3-----3-----3----|

   GTR I
c#|-------------------------------------------------|
G#|-------------------------------------------------|
 E|--7-----7-----7-----7----------------------------|
 B|--7-----7-----7-----7-----x--7--7--7-----7--7--7-|
F#|--5-----5-----5-----5-----x--7--7--7-----7--7--7-|
 B|--------------------------x--7--7--7-----7--7--7-|
  |                                                 
  |GTR II                                           
eb|-------------------------------------------------|
Bb|-------------------------------------------------|
Gb|--5-----5-----5-----5----------------------------|
Db|--5-----5-----5-----5-----x--5--5--5-----5--5--5-|
Ab|--3-----3-----3-----3-----x--5--5--5-----5--5--5-|
Db|--------------------------x--5--5--5-----5--5--5-|

   GTR I
c#|-------------------------------------------------|
G#|-------------------------------------------------|
 E|-------------------------------------------------|
 B|--2-----2-----2-----2-----5-----5-----5-----5----|
F#|--2-----2-----2-----2-----5-----5-----5-----5----|
 B|--2-----2-----2-----2-----5-----5-----5-----5----|
  |                                                 
  |GTR II                                           
eb|-------------------------------------------------|
Bb|-------------------------------------------------|
Gb|-------------------------------------------------|
Db|--0-----0-----0-----0-----3-----3-----3-----3----|
Ab|--0-----0-----0-----0-----3-----3-----3-----3----|
Db|--0-----0-----0-----0-----3-----3-----3-----3----|

   GTR I
c#|-------------------------------------------------|
G#|-------------------------------------------------|
 E|--7-----7-----7-----7----------------------------|
 B|--7-----7-----7-----7-----x--7--7--7-----0--0--0-|
F#|--5-----5-----5-----5-----x--7--7--7-----0--0--0-|
 B|--------------------------x--7--7--7-----0--0--0-|
  |                                                 
  |GTR II                                           
eb|-------------------------------------------------|
Bb|-------------------------------------------------|
Gb|--5-----5-----5-----5----------------------------|
Db|--5-----5-----5-----5-----x--5--5--5-----5--5--5-|
Ab|--3-----3-----3-----3-----x--5--5--5-----5--5--5-|
Db|--------------------------x--5--5--5-----5--5--5-|

   GTR I
c#|-------------------------------------------------|
G#|-------------------------------------------------|
 E|-------------------------------------------------|
 B|--2-----2-----2-----2-----5-----5-----5-----5----|
F#|--2-----2-----2-----2-----5-----5-----5-----5----|
 B|--2-----2-----2-----2-----5-----5-----5-----5----|
  |                                                 
  |GTR II                                           
eb|-------------------------------------------------|
Bb|-------------------------------------------------|
Gb|-------------------------------------------------|
Db|--0-----0-----0-----0-----3-----3-----3-----3----|
Ab|--0-----0-----0-----0-----3-----3-----3-----3----|
Db|--0-----0-----0-----0-----3-----3-----3-----3----|

   GTR I
c#|-------------------------------------------------|
G#|-------------------------------------------------|
 E|-------------------------------------------------|
 B|--0-----0-----0-----0-----x--7--7--7-----7--7--0-|
F#|--0-----0-----0-----0-----x--7--7--7-----7--7--0-|
 B|--0-----0-----0-----0-----x--7--7--7-----7--7--0-|
  |                                                 
  |GTR II                                           
eb|-------------------------------------------------|
Bb|-------------------------------------------------|
Gb|--5-----5-----5-----5----------------------------|
Db|--5-----5-----5-----5-----x--5--5--5-----5--5--5-|
Ab|--3-----3-----3-----3-----x--5--5--5-----5--5--5-|
Db|--------------------------x--5--5--5-----5--5--5-|

   GTR I
c#|-------------------------------------------------|
G#|-------------------------------------------------|
 E|-------------------------------------------------|
 B|--2-----2-----2-----2-----5-----5-----5-----5----|
F#|--2-----2-----2-----2-----5-----5-----5-----5----|
 B|--2-----2-----2-----2-----5-----5-----5-----5----|
  |                                                 
  |GTR II                                           
eb|-------------------------------------------------|
Bb|-------------------------------------------------|
Gb|-------------------------------------------------|
Db|--0-----0-----0-----0-----3-----3-----3-----3----|
Ab|--0-----0-----0-----0-----3-----3-----3-----3----|
Db|--0-----0-----0-----0-----3-----3-----3-----3----|

   GTR I
c#|-------------------------------------------------|
G#|-------------------------------------------------|
 E|-------------------------------------------------|
 B|--0-----0-----0-----0-----x--7--7--7-----7--0--0-|
F#|--0-----0-----0-----0-----x--7--7--7-----7--0--0-|
 B|--0-----0-----0-----0-----x--7--7--7-----7--0--0-|
  |                                            .  . 
  |GTR II                                           
eb|-------------------------------------------------|
Bb|-------------------------------------------------|
Gb|--5-----5-----5-----5----------------------------|
Db|--5-----5-----5-----5-----x--5--5--5-----5--5--5-|
Ab|--3-----3-----3-----3-----x--5--5--5-----5--5--5-|
Db|--------------------------x--5--5--5-----5--5--5-|
                                               .  .

Verse 2

   GTR I
c#|-------------------------------------------------|
G#|-------------------------------------------------|
 E|-------------------------------------------------|
 B|--2----------------------------------------------|
F#|--2----------------------------------------------|
 B|--2----------------------------------------------|
  |                                                 
  |GTR II                                           
eb|-------------------------------------------------|
Bb|-------------------------------------------------|
Gb|-------------------------------------------------|
Db|--0----------------------------------------------|
Ab|--0----------------------------------------------|
Db|--0----------------------------------------------|
  |                                                 
  |GTR III                                          
eb|--2-----------2-----------2-----2--2--------2--2-|
Bb|--3-----------3-----------3-----3--3--------3--3-|
Gb|--2-----------2-----------2-----2--2--------2--2-|
Db|--0-----------0-----------0-----0--0--------0--0-|
Ab|--0-----------0-----------0-----0--0--------0--0-|
Eb|--0-----------0-----------0-----0--0--------0--0-|

   GTR III                                          
eb|--3-----------3-----------3-----3--3--------3--3-|
Bb|--3-----------3-----------3-----3--3--------3--3-|
Gb|--0-----------0-----------0-----0--0--------0--0-|
Db|--0-----------0-----------0-----0--0--------0--0-|
Ab|--2-----------2-----------2-----2--2--------2--2-|
Eb|--3-----------3-----------3-----3--3--------3--3-|

   GTR III                                          
eb|--1-----1--1--1-----1--1--0-----0--0--0-----0--0-|
Bb|--1-----1--1--1-----1--1--1-----1--1--1-----1--1-|
Gb|--2-----2--2--2-----2--2--0-----0--0--0-----0--0-|
Db|--3-----3--3--3-----3--3--2-----2--2--2-----2--2-|
Ab|--3-----3--3--3-----3--3--3-----3--3--3-----3--3-|
Eb|--x-----x--x--x-----x--x--x-----x--x--x-----x--x-|

   GTR III                                          
eb|--3-----------3-----------3-----3--3--------3--3-|
Bb|--3-----------3-----------3-----3--3--------3--3-|
Gb|--0-----------0-----------0-----0--0--------0--0-|
Db|--0-----------0-----------0-----0--0--------0--0-|
Ab|--2-----------2-----------2-----2--2--------2--2-|
Eb|--3-----------3-----------3-----3--3--------3--3-|

   GTR III                                          
eb|--2-----------2-----------2-----2--2--------2--2-|
Bb|--3-----------3-----------3-----3--3--------3--3-|
Gb|--2-----------2-----------2-----2--2--------2--2-|
Db|--0-----------0-----------0-----0--0--------0--0-|
Ab|--0-----------0-----------0-----0--0--------0--0-|
Eb|--0-----------0-----------0-----0--0--------0--0-|

   GTR III                                          
eb|--3-----------3-----------3-----3--3--------3--3-|
Bb|--3-----------3-----------3-----3--3--------3--3-|
Gb|--0-----------0-----------0-----0--0--------0--0-|
Db|--0-----------0-----------0-----0--0--------0--0-|
Ab|--2-----------2-----------2-----2--2--------2--2-|
Eb|--3-----------3-----------3-----3--3--------3--3-|

   GTR III                                          
eb|--1-----1--1--1-----1--1--0-----0--0--0-----0--0-|
Bb|--1-----1--1--1-----1--1--1-----1--1--1-----1--1-|
Gb|--2-----2--2--2-----2--2--0-----0--0--0-----0--0-|
Db|--3-----3--3--3-----3--3--2-----2--2--2-----2--2-|
Ab|--3-----3--3--3-----3--3--3-----3--3--3-----3--3-|
Eb|--x-----x--x--x-----x--x--x-----x--x--x-----x--x-|

   GTR I
c#|-------------------------------------------------|
G#|-------------------------------------------------|
 E|-------------------------------------------------|
 B|--------------------------------x--x--------x--x-|
F#|--------------------------------x--x--------x--x-|
 B|--------------------------------x--x--------x--x-|
  |                                                 
  |GTR II                                           
eb|-------------------------------------------------|
Bb|-------------------------------------------------|
Gb|-------------------------------------------------|
Db|--------------------------------x--x--------x--x-|
Ab|--------------------------------x--x--------x--x-|
Db|--------------------------------x--x--------x--x-|
  |                                               
  |GTR III                                          
eb|--3----------------------------------------------|
Bb|--3----------------------------------------------|
Gb|--0----------------------------------------------|
Db|--0----------------------------------------------|
Ab|--2----------------------------------------------|
Eb|--3----------------------------------------------|

Chorus 2

   GTR I
c#|-------------------------------------------------|
G#|-------------------------------------------------|
 E|-------------------------------------------------|
 B|--2-----2-----2-----2-----5-----5-----5-----5----|
F#|--2-----2-----2-----2-----5-----5-----5-----5----|
 B|--2-----2-----2-----2-----5-----5-----5-----5----|
  |                                                 
  |GTR II                                           
eb|-------------------------------------------------|
Bb|-------------------------------------------------|
Gb|-------------------------------------------------|
Db|--0-----0-----0-----0-----3-----3-----3-----3----|
Ab|--0-----0-----0-----0-----3-----3-----3-----3----|
Db|--0-----0-----0-----0-----3-----3-----3-----3----|

   GTR I
c#|-------------------------------------------------|
G#|-------------------------------------------------|
 E|--7-----7-----7-----7----------------------------|
 B|--7-----7-----7-----7-----x--7--7--7-----7--7--7-|
F#|--5-----5-----5-----5-----x--7--7--7-----7--7--7-|
 B|--------------------------x--7--7--7-----7--7--7-|
  |                                                 
  |GTR II                                           
eb|-------------------------------------------------|
Bb|-------------------------------------------------|
Gb|--5-----5-----5-----5----------------------------|
Db|--5-----5-----5-----5-----x--5--5--5-----5--5--5-|
Ab|--3-----3-----3-----3-----x--5--5--5-----5--5--5-|
Db|--------------------------x--5--5--5-----5--5--5-|

   GTR I
c#|-------------------------------------------------|
G#|-------------------------------------------------|
 E|-------------------------------------------------|
 B|--2-----2-----2-----2-----5-----5-----5-----5----|
F#|--2-----2-----2-----2-----5-----5-----5-----5----|
 B|--2-----2-----2-----2-----5-----5-----5-----5----|
  |                                                 
  |GTR II                                           
eb|-------------------------------------------------|
Bb|-------------------------------------------------|
Gb|-------------------------------------------------|
Db|--0-----0-----0-----0-----3-----3-----3-----3----|
Ab|--0-----0-----0-----0-----3-----3-----3-----3----|
Db|--0-----0-----0-----0-----3-----3-----3-----3----|

   GTR I
c#|-------------------------------------------------|
G#|-------------------------------------------------|
 E|--7-----7-----7-----7----------------------------|
 B|--7-----7-----7-----7--------7--7--7-----0--0--0-|
F#|--5-----5-----5-----5--Pick--7--7--7-----0--0--0-|
 B|----------------------scrape-7--7--7-----0--0--0-|
  |                                                 
  |GTR II                                           
eb|-------------------------------------------------|
Bb|-------------------------------------------------|
Gb|--5-----5-----5-----5----------------------------|
Db|--5-----5-----5-----5-----x--5--5--5-----5--5--5-|
Ab|--3-----3-----3-----3-----x--5--5--5-----5--5--5-|
Db|--------------------------x--5--5--5-----5--5--5-|

   GTR I
c#|-------------------------------------------------|
G#|-------------------------------------------------|
 E|-------------------------------------------------|
 B|--2-----2-----2-----2-----5-----5-----5-----5----|
F#|--2-----2-----2-----2-----5-----5-----5-----5----|
 B|--2-----2-----2-----2-----5-----5-----5-----5----|
  |                                                 
  |GTR II                                           
eb|-------------------------------------------------|
Bb|-------------------------------------------------|
Gb|-------------------------------------------------|
Db|--0-----0-----0-----0-----3-----3-----3-----3----|
Ab|--0-----0-----0-----0-----3-----3-----3-----3----|
Db|--0-----0-----0-----0-----3-----3-----3-----3----|

   GTR I
c#|-------------------------------------------------|
G#|-------------------------------------------------|
 E|-------------------------------------------------|
 B|--0-----0-----0-----0-----x--7--7--7-----7--7--0-|
F#|--0-----0-----0-----0-----x--7--7--7-----7--7--0-|
 B|--0-----0-----0-----0-----x--7--7--7-----7--7--0-|
  |                                                 
  |GTR II                                           
eb|-------------------------------------------------|
Bb|-------------------------------------------------|
Gb|--5-----5-----5-----5----------------------------|
Db|--5-----5-----5-----5-----x--5--5--5-----5--5--5-|
Ab|--3-----3-----3-----3-----x--5--5--5-----5--5--5-|
Db|--------------------------x--5--5--5-----5--5--5-|

   GTR I
c#|-------------------------------------------------|
G#|-------------------------------------------------|
 E|-------------------------------------------------|
 B|--2-----2-----2-----2-----5-----5-----5-----5----|
F#|--2-----2-----2-----2-----5-----5-----5-----5----|
 B|--2-----2-----2-----2-----5-----5-----5-----5----|
  |                                                 
  |GTR II                                           
eb|-------------------------------------------------|
Bb|-------------------------------------------------|
Gb|-------------------------------------------------|
Db|--0-----0-----0-----0-----3-----3-----3-----3----|
Ab|--0-----0-----0-----0-----3-----3-----3-----3----|
Db|--0-----0-----0-----0-----3-----3-----3-----3----|

   GTR I
c#|-------------------------------------------------|
G#|-------------------------------------------------|
 E|-------------------------------------------------|
 B|--0-----0-----0-----0-----x--7--7--7-----5--5--5-|
F#|--0-----0-----0-----0-----x--7--7--7-----5--5--5-|
 B|--0-----0-----0-----0-----x--7--7--7-----5--5--5-|
  |                                                 
  |GTR II                                           
eb|-------------------------------------------------|
Bb|-------------------------------------------------|
Gb|--5-----5-----5-----5----------------------------|
Db|--5-----5-----5-----5-----x--5--5--5-----3--3--3-|
Ab|--3-----3-----3-----3-----x--5--5--5-----3--3--3-|
Db|--------------------------x--5--5--5-----3--3--3-|
                                                   
Bridge

   GTR II                                           
eb|-------------------------------------------------|
Bb|-------------------------------------------------|
Gb|-------------------------------------------------|
Db|-------------------------------------------------|
Ab|--------------3-----------3--------------------5-|
Db|--0--3--4--5-----5--4--3-----5--4--3--0--3--4----|

   GTR I
c#|-------------------------------------------------|
G#|-------------------------------------------------|
 E|-------------------------------------------------|
 B|-----------------------------7--7--7-----0--0--0-|
F#|-----------------------------5--5--5-----0--0--0-|
 B|-----------------------------5--5--5-----0--0--0-|
  |                                                 
  |GTR II                                           
eb|-------------------------------------------------|
Bb|-------------------------------------------------|
Gb|-------------------------------------------------|
Db|--------------------------x--5--5--5-----5--5--5-|
Ab|--------------3-----------x--3--3--3-----3--3--3-|
Db|--0--3--4--5-----5--4--3--x--3--3--3-----3--3--3-|

   GTR II                                           
eb|-------------------------------------------------|
Bb|-------------------------------------------------|
Gb|-------------------------------------------------|
Db|-------------------------------------------------|
Ab|--------------3-----------3--------------------5-|
Db|--0--3--4--5-----5--4--3-----5--4--3--0--3--4----|

   GTR I
c#|-------------------------------------------------|
G#|-------------------------------------------------|
 E|-------------------------------------------------|
 B|-----------------------------7--7--7-------------|
F#|-----------------------------5--5--5-------------|
 B|-----------------------------5--5--5------/14\---|
  |                                                 
  |GTR II                                           
eb|-------------------------------------------------|
Bb|-------------------------------------------------|
Gb|-------------------------------------------------|
Db|--------------------------x--5--5--5-----5--5--5-|
Ab|--------------3-----------x--3--3--3-----3--3--3-|
Db|--0--3--4--5-----5--4--3--x--3--3--3-----3--3--3-|

Guitar Solo

   GTR I
c#|-------------------------------------------------|
G#|-------------------------------------------------|
 E|-------------------------------------------------|
 B|-------------------------------------------------|
F#|----------------11br--------------14~------------|
 B|--14~--------------------------------------------|
  |                                                 
  |GTR II                                           
eb|-------------------------------------------------|
Bb|-------------------------------------------------|
Gb|-------------------------------------------------|
Db|--0-----0-----0-----0-----3-----3-----3-----3----|
Ab|--0-----0-----0-----0-----3-----3-----3-----3----|
Db|--0-----0-----0-----0-----3-----3-----3-----3----|

   GTR I
c#|-------------------------------------------------|
G#|-------------------------------------------------|
 E|-----------9-------------------------------------|
 B|-----9--9-----9~\--------------------------------|
F#|-------------------------------/7~---------/7~---|
 B|-------------------------/5~---------/5~---------|
  |                                                 
  |GTR II                                           
eb|-------------------------------------------------|
Bb|-------------------------------------------------|
Gb|--5-----5-----5-----5----------------------------|
Db|--5-----5-----5-----5-----x--5--5--5-----5--5--5-|
Ab|--3-----3-----3-----3-----x--5--5--5-----5--5--5-|
Db|--------------------------x--5--5--5-----5--5--5-|

   GTR I
c#|-------------------------------------------------|
G#|-------------------------------------------------|
 E|/11-----9~--------/11-----9~----7-----------7----|
 B|-------------------------------------/9----------|
F#|-------------------------------------------------|
 B|-------------------------------------------------|
  |                                                 
  |GTR II                                           
eb|-------------------------------------------------|
Bb|-------------------------------------------------|
Gb|-------------------------------------------------|
Db|--0-----0-----0-----0-----3-----3-----3-----3----|
Ab|--0-----0-----0-----0-----3-----3-----3-----3----|
Db|--0-----0-----0-----0-----3-----3-----3-----3----|

   GTR I
c#|-------------------------------------------------|
G#|-------------------------------------------------|
 E|/11-----9~--------/11-----9~----7---------/11----|
 B|-------------------------------------/9----------|
F#|-------------------------------------------------|
 B|-------------------------------------------------|
  |                                                 
  |GTR II                                           
eb|-------------------------------------------------|
Bb|-------------------------------------------------|
Gb|--5-----5-----5-----5----------------------------|
Db|--5-----5-----5-----5-----x--5--5--5-----5--5--5-|
Ab|--3-----3-----3-----3-----x--5--5--5-----5--5--5-|
Db|--------------------------x--5--5--5-----5--5--5-|
                                               .  .

Post Solo

   GTR I
c#|-------------------------------------------------|
G#|-------------------------------------------------|
 E|--9~---------------------------------------------|
 B|-------------------------------------------------|
F#|-------------------------------------------------|
 B|-------------------------------------------------|
  |                                                 
  |GTR II                                           
eb|-------------------------------------------------|
Bb|-------------------------------------------------|
Gb|-------------------------------------------------|
Db|--0----------------------------------------------|
Ab|--0----------------------------------------------|
Db|--0----------------------------------------------|
  |                                                 
  |GTR III                                          
eb|--2----------------------------------------------|
Bb|--3----------------------------------------------|
Gb|--2----------------------------------------------|
Db|--0----------------------------------------------|
Ab|--0----------------------------------------------|
Eb|--0----------------------------------------------|

   GTR III                                          
eb|--3----------------------------------------------|
Bb|--3----------------------------------------------|
Gb|--0----------------------------------------------|
Db|--0----------------------------------------------|
Ab|--2----------------------------------------------|
Eb|--3----------------------------------------------|

   GTR III                                          
eb|--1-----------------------0----------------------|
Bb|--1-----------------------1----------------------|
Gb|--2-----------------------0----------------------|
Db|--3-----------------------2----------------------|
Ab|--3-----------------------3----------------------|
Eb|--x-----------------------x----------------------|

   GTR III                                          
eb|--3----------------------------------------------|
Bb|--3----------------------------------------------|
Gb|--0----------------------------------------------|
Db|--0----------------------------------------------|
Ab|--2----------------------------------------------|
Eb|--3----------------------------------------------|

   GTR III                                          
eb|--2----------------------------------------------|
Bb|--3----------------------------------------------|
Gb|--2----------------------------------------------|
Db|--0----------------------------------------------|
Ab|--0----------------------------------------------|
Eb|--0----------------------------------------------|

   GTR III                                          
eb|--3----------------------------------------------|
Bb|--3----------------------------------------------|
Gb|--0----------------------------------------------|
Db|--0----------------------------------------------|
Ab|--2----------------------------------------------|
Eb|--3----------------------------------------------|

   GTR III                                          
eb|--1-----------------------0----------------------|
Bb|--1-----------------------1----------------------|
Gb|--2-----------------------0----------------------|
Db|--3-----------------------2----------------------|
Ab|--3-----------------------3----------------------|
Eb|--x-----------------------x----------------------|

   GTR I
c#|-------------------------------------------------|
G#|-------------------------------------------------|
 E|-------------------------------------------------|
 B|--------------------------------x--x--------x--x-|
F#|--------------------------------x--x--------x--x-|
 B|--------------------------------x--x--------x--x-|
  |                                                 
  |GTR II                                           
eb|-------------------------------------------------|
Bb|-------------------------------------------------|
Gb|-------------------------------------------------|
Db|--------------------------------x--x--------x--x-|
Ab|--------------------------------x--x--------x--x-|
Db|--------------------------------x--x--------x--x-|
  |                                               
  |GTR III                                          
eb|--3----------------------------------------------|
Bb|--3----------------------------------------------|
Gb|--0----------------------------------------------|
Db|--0----------------------------------------------|
Ab|--2----------------------------------------------|
Eb|--3----------------------------------------------|

Chorus 2

   GTR I
c#|-------------------------------------------------|
G#|-------------------------------------------------|
 E|-------------------------------------------------|
 B|--2-----2-----2-----2-----5-----5-----5-----5----|
F#|--2-----2-----2-----2-----5-----5-----5-----5----|
 B|--2-----2-----2-----2-----5-----5-----5-----5----|
  |                                                 
  |GTR II                                           
eb|-------------------------------------------------|
Bb|-------------------------------------------------|
Gb|-------------------------------------------------|
Db|--0-----0-----0-----0-----3-----3-----3-----3----|
Ab|--0-----0-----0-----0-----3-----3-----3-----3----|
Db|--0-----0-----0-----0-----3-----3-----3-----3----|

   GTR I
c#|-------------------------------------------------|
G#|-------------------------------------------------|
 E|--7-----7-----7-----7----------------------------|
 B|--7-----7-----7-----7-----x--7--7--7-----7--7--7-|
F#|--5-----5-----5-----5-----x--7--7--7-----7--7--7-|
 B|--------------------------x--7--7--7-----7--7--7-|
  |                                                 
  |GTR II                                           
eb|-------------------------------------------------|
Bb|-------------------------------------------------|
Gb|--5-----5-----5-----5----------------------------|
Db|--5-----5-----5-----5-----x--5--5--5-----5--5--5-|
Ab|--3-----3-----3-----3-----x--5--5--5-----5--5--5-|
Db|--------------------------x--5--5--5-----5--5--5-|

   GTR I
c#|-------------------------------------------------|
G#|-------------------------------------------------|
 E|-------------------------------------------------|
 B|--2-----2-----2-----2-----5-----5-----5-----5----|
F#|--2-----2-----2-----2-----5-----5-----5-----5----|
 B|--2-----2-----2-----2-----5-----5-----5-----5----|
  |                                                 
  |GTR II                                           
eb|-------------------------------------------------|
Bb|-------------------------------------------------|
Gb|-------------------------------------------------|
Db|--0-----0-----0-----0-----3-----3-----3-----3----|
Ab|--0-----0-----0-----0-----3-----3-----3-----3----|
Db|--0-----0-----0-----0-----3-----3-----3-----3----|

   GTR I
c#|-------------------------------------------------|
G#|-------------------------------------------------|
 E|--7-----7-----7-----7----------------------------|
 B|--7-----7-----7-----7--------7--7--7-----0--0--0-|
F#|--5-----5-----5-----5--Pick--7--7--7-----0--0--0-|
 B|----------------------scrape-7--7--7-----0--0--0-|
  |                                                 
  |GTR II                                           
eb|-------------------------------------------------|
Bb|-------------------------------------------------|
Gb|--5-----5-----5-----5----------------------------|
Db|--5-----5-----5-----5-----x--5--5--5-----5--5--5-|
Ab|--3-----3-----3-----3-----x--5--5--5-----5--5--5-|
Db|--------------------------x--5--5--5-----5--5--5-|

   GTR I
c#|-------------------------------------------------|
G#|-------------------------------------------------|
 E|-------------------------------------------------|
 B|--2-----2-----2-----2-----5-----5-----5-----5----|
F#|--2-----2-----2-----2-----5-----5-----5-----5----|
 B|--2-----2-----2-----2-----5-----5-----5-----5----|
  |                                                 
  |GTR II                                           
eb|-------------------------------------------------|
Bb|-------------------------------------------------|
Gb|-------------------------------------------------|
Db|--0-----0-----0-----0-----3-----3-----3-----3----|
Ab|--0-----0-----0-----0-----3-----3-----3-----3----|
Db|--0-----0-----0-----0-----3-----3-----3-----3----|

   GTR I
c#|-------------------------------------------------|
G#|-------------------------------------------------|
 E|-------------------------------------------------|
 B|--0-----0-----0-----0-----x--7--7--7-----7--7--0-|
F#|--0-----0-----0-----0-----x--7--7--7-----7--7--0-|
 B|--0-----0-----0-----0-----x--7--7--7-----7--7--0-|
  |                                                 
  |GTR II                                           
eb|-------------------------------------------------|
Bb|-------------------------------------------------|
Gb|--5-----5-----5-----5----------------------------|
Db|--5-----5-----5-----5-----x--5--5--5-----5--5--5-|
Ab|--3-----3-----3-----3-----x--5--5--5-----5--5--5-|
Db|--------------------------x--5--5--5-----5--5--5-|

   GTR I
c#|-------------------------------------------------|
G#|-------------------------------------------------|
 E|-------------------------------------------------|
 B|--2-----2-----2-----2-----5-----5-----5-----5----|
F#|--2-----2-----2-----2-----5-----5-----5-----5----|
 B|--2-----2-----2-----2-----5-----5-----5-----5----|
  |                                                 
  |GTR II                                           
eb|-------------------------------------------------|
Bb|-------------------------------------------------|
Gb|-------------------------------------------------|
Db|--0-----0-----0-----0-----3-----3-----3-----3----|
Ab|--0-----0-----0-----0-----3-----3-----3-----3----|
Db|--0-----0-----0-----0-----3-----3-----3-----3----|

   GTR I
c#|--x-----x-----x-----x----------------------------|
G#|--3-----3-----3-----3----------------------------|
 E|--2-----2-----2-----2----------------------------|
 B|--0-----0-----0-----0-----7--7--7--7--7--7--7--7-|
F#|--0-----0-----0-----0-----7--7--7--7--7--7--7--7-|
 B|--0-----0-----0-----0-----7--7--7--7--7--7--7--7-|
  |                          .  .  .  .  .  .  .  . 
  |GTR II                                           
eb|-------------------------------------------------|
Bb|-------------------------------------------------|
Gb|--5-----5-----5-----5----------------------------|
Db|--5-----5-----5-----5-----5--5--5--5--5--5--5--5-|
Ab|--3-----3-----3-----3-----5--5--5--5--5--5--5--5-|
Db|--------------------------5--5--5--5--5--5--5--5-|
                             .  .  .  .  .  .  .  .

Outro

   GTR I
c#|-------------------------------------------------|
G#|-------------------------------------------------|
 E|-------------------------------------------------|
 B|--2-----2-----2-----2-----5-----5-----5-----5----|
F#|--2-----2-----2-----2-----5-----5-----5-----5----|
 B|--2-----2-----2-----2-----5-----5-----5-----5----|
  |                                                 
  |GTR II                                           
eb|-------------------------------------------------|
Bb|-------------------------------------------------|
Gb|-------------------------------------------------|
Db|--0-----0-----0-----0-----3-----3-----3-----3----|
Ab|--0-----0-----0-----0-----3-----3-----3-----3----|
Db|--0-----0-----0-----0-----3-----3-----3-----3----|

   GTR I
c#|-------------------------------------------------|
G#|-------------------------------------------------|
 E|-------------------------------------------------|
 B|--0-----0-----0-----0-----7-----7-----7-----7----|
F#|--0-----0-----0-----0-----7-----7-----7-----7----|
 B|--0-----0-----0-----0-----7-----7-----7-----7----|
  |                                                 
  |GTR II                                           
eb|-------------------------------------------------|
Bb|-------------------------------------------------|
Gb|--5-----5-----5-----5----------------------------|
Db|--5-----5-----5-----5-----5-----5-----5-----5----|
Ab|--3-----3-----3-----3-----5-----5-----5-----5----|
Db|--------------------------5-----5-----5-----5----|

   GTR I
c#|-------------------------------------------------|
G#|-------------------------------------------------|
 E|-------------------------------------------------|
 B|--2-----2-----2-----2-----5-----5-----5-----5----|
F#|--2-----2-----2-----2-----5-----5-----5-----5----|
 B|--2-----2-----2-----2-----5-----5-----5-----5----|
  |                                                 
  |GTR II                                           
eb|-------------------------------------------------|
Bb|-------------------------------------------------|
Gb|-------------------------------------------------|
Db|--0-----0-----0-----0-----3-----3-----3-----3----|
Ab|--0-----0-----0-----0-----3-----3-----3-----3----|
Db|--0-----0-----0-----0-----3-----3-----3-----3----|

   GTR I
c#|-------------------------------------------------|
G#|-------------------------------------------------|
 E|-------------------------------------------------|
 B|--0-----0-----0-----0-----7-----7-----7-----7----|
F#|--0-----0-----0-----0-----7-----7-----7-----7----|
 B|--0-----0-----0-----0-----7-----7-----7-----7----|
  |                                                 
  |GTR II                                           
eb|-------------------------------------------------|
Bb|-------------------------------------------------|
Gb|--5-----5-----5-----5----------------------------|
Db|--5-----5-----5-----5-----5-----5-----5-----5----|
Ab|--3-----3-----3-----3-----5-----5-----5-----5----|
Db|--------------------------5-----5-----5-----5----|

   GTR I
c#|-------------------------------------------------|
G#|-------------------------------------------------|
 E|-------------------------------------------------|
 B|--2-----2-----2-----2-----5-----5-----5-----5----|
F#|--2-----2-----2-----2-----5-----5-----5-----5----|
 B|--2-----2-----2-----2-----5-----5-----5-----5----|
  |                                                 
  |GTR II                                           
eb|-------------------------------------------------|
Bb|-------------------------------------------------|
Gb|-------------------------------------------------|
Db|--0-----0-----0-----0-----3-----3-----3-----3----|
Ab|--0-----0-----0-----0-----3-----3-----3-----3----|
Db|--0-----0-----0-----0-----3-----3-----3-----3----|

   GTR I
c#|-------------------------------------------------|
G#|-------------------------------------------------|
 E|-------------------------------------------------|
 B|--0-----0-----0-----0-----7-----7-----7-----7----|
F#|--0-----0-----0-----0-----7-----7-----7-----7----|
 B|--0-----0-----0-----0-----7-----7-----7-----7----|
  |                                                 
  |GTR II                                           
eb|-------------------------------------------------|
Bb|-------------------------------------------------|
Gb|--5-----5-----5-----5----------------------------|
Db|--5-----5-----5-----5-----5-----5-----5-----5----|
Ab|--3-----3-----3-----3-----5-----5-----5-----5----|
Db|--------------------------5-----5-----5-----5----|

   GTR I
c#|-------------------------------------------------|
G#|-------------------------------------------------|
 E|-------------------------------------------------|
 B|--2-----2-----2-----2-----5-----5-----5-----5----|
F#|--2-----2-----2-----2-----5-----5-----5-----5----|
 B|--2-----2-----2-----2-----5-----5-----5-----5----|
  |                                                 
  |GTR II                                           
eb|-------------------------------------------------|
Bb|-------------------------------------------------|
Gb|-------------------------------------------------|
Db|--0-----0-----0-----0-----3-----3-----3-----3----|
Ab|--0-----0-----0-----0-----3-----3-----3-----3----|
Db|--0-----0-----0-----0-----3-----3-----3-----3----|

   GTR I
c#|-------------------------------------------------|
G#|-------------------------------------------------|
 E|-------------------------------------------------|
 B|--0-----0-----x-----0-----7----------------------|
F#|--0-----0-----x-----0-----7----------------------|
 B|--0-----0-----x-----0-----7----------------------|
  |                                                 
  |GTR II                                           
eb|-------------------------------------------------|
Bb|-------------------------------------------------|
Gb|--5-----5-----------5----------------------------|
Db|--5-----5-----x-----5-----5----------------------|
Ab|--3-----3-----x-----3-----5----------------------|
Db|--------------x-----------5----------------------|



| b  bend
| r  release bend
|PH. pinch harmonic
|fbk feedback
| .  palm-mute
| /  slide up
| \  slide down
| h  hammer-on
| p  pull-off
| ~  vibrato
| +  harmonic
| x  Mute note
===============================================================================

Tap to rate this tab
# A B C D E F G H I J K L M N O P Q R S T U V W X Y Z