Song name
# A B C D E F G H I J K L M N O P Q R S T U V W X Y Z

Nickelback - Never Again tab


Band: Nickelback
Song: Never Again


Tuning: Drop C (Drop D and then 1 step down)

        ^
        It Sounds great in this song!


Palm Muted: *
Let Ring: ~


Intro


D |---------------------------------------------------------------------------|     2x
A |---------------------------------------------------------------------------|
F |-----9-9-9--12-12-12--7-7-7----------------9-9-9--12-12-12--7-7-7----------|
C |-----9-9-9--12-12-12--7-7-7---5-5-7--------9-9-9--12-12-12--7-7-7--7-7-5---|
G |-----7-7-7--10-10-10--5-5-5---5-5-7--------7-7-7--10-10-10--5-5-5--7-7-5---|
C |------------------------------5-5-7--------------------------------7-7-5---|


Verse 1

D |----------------------------------------|
A |----------------------------------------|
F |----7-7-7-7-7-7-------------------------|
C |----7-7-7-7-7-7---7-7-7-7-7-5-----------|
G |----5-5-5-5-5-5---7-7-7-7-7-5-----------|
C |------------------7-7-7-7-7-5-----------|

D|------------------------------------------------------------------------------|
A|------------------------------------------------------------------------------|
F|-----9-9-9--12-12-12--7-7-7----------------9-9-9--12-12-12--7-7-7-------------|
C|-----9-9-9--12-12-12--7-7-7---5-5-7--------9-9-9--12-12-12--7-7-7--7-7-5------|
G|-----7-7-7--10-10-10--5-5-5---5-5-7--------7-7-7--10-10-10--5-5-5--7-7-5------|
C|------------------------------5-5-7--------------------------------7-7-5------|


Verse 2

D |----------------------------------|
A |----------------------------------|
F |----7-7-7-7-7-7-------------------|
C |----7-7-7-7-7-7---7-7-7-7-7-5-----|
G |----5-5-5-5-5-5---7-7-7-7-7-5-----|
C |------------------7-7-7-7-7-5-----|

Chorus


D |----------------------------------|   3x
A |----------------------------------|
F |---9-9-9--7-7-7-------------------|
C |---9-9-9--7-7-7---7-7-7--5-5-5----|
G |---7-7-7--5-5-5---7-7-7--5-5-5----|
C |------------------7-7-7--5-5-5----|

D |----------------------------------|
A |----------------------------------|
F |----7-7-7-7-7-7-------------------|
C |----7-7-7-7-7-7---7-7-7-7-7-5-----|
G |----5-5-5-5-5-5---7-7-7-7-7-5-----|
C |------------------7-7-7-7-7-5-----|

D|------------------------------------------------------------------------------|
A|------------------------------------------------------------------------------|
F|-----9-9-9--12-12-12--7-7-7----------------9-9-9--12-12-12--7-7-7-------------|
C|-----9-9-9--12-12-12--7-7-7---5-5-7--------9-9-9--12-12-12--7-7-7--7-7-5------|
G|-----7-7-7--10-10-10--5-5-5---5-5-7--------7-7-7--10-10-10--5-5-5--7-7-5------|
C|------------------------------5-5-7--------------------------------7-7-5------|

Verse 3

D |---------------------------------|
A |---------------------------------|
F |----7-7-7-7-7-7------------------|
C |----7-7-7-7-7-7---7-7-7-7-7-5----|
G |----5-5-5-5-5-5---7-7-7-7-7-5----|
C |------------------7-7-7-7-7-5----|


Chorus


D |----------------------------------|   3x
A |----------------------------------|
F |---9-9-9--7-7-7-------------------|
C |---9-9-9--7-7-7---7-7-7--5-5-5----|
G |---7-7-7--5-5-5---7-7-7--5-5-5----|
C |------------------7-7-7--5-5-5----|

D |----------------------------------|
A |----------------------------------|
F |----7-7-7-7-7-7-------------------|
C |----7-7-7-7-7-7---7-7-7-7-7-5-----|
G |----5-5-5-5-5-5---7-7-7-7-7-5-----|
C |------------------7-7-7-7-7-5-----|

D|----------------------------------------------| 3x|   then end with and play it between this:
A|---------------------------------|------------|
F|---------------------------------|------------|           Father's a name you haven'tearned yet
C|----5-5-2--5-5-2--5-5-2-7-5-7-8--|---7-5-8-2--|           You're just a child with a temper
G|----5-5-2--5-5-2--5-5-2-7-5-7-8--|---7-5-8-2--|           Haven't you heard "Don't hit a lady"?
C|----5-5-2--5-5-2--5-5-2-7-5-7-8--|---7-5-8-2--|           Kickin' your ass would be a pleasure

D |-----------------------------------------|   4x
A |-----------------------------------------|
F |-----------------------------------------|
C |--7-7-7---5-5-2--5-5-2--5-5-2-7-5-7-8----|
G |--7-7-7---5-5-2--5-5-2--5-5-2-7-5-7-8----|
C |--7-7-7---5-5-2--5-5-2--5-5-2-7-5-7-8----|
     * * *


D |---------------------------------------|
A |---------------------------------------|
F |-----------7-7-7-7-7-7-----------------|
C |----7~-----7-7-7-7-7-7---7-7-7-7-7-5---|
G |----7~-----5-5-5-5-5-5---7-7-7-7-7-5---|
C |----7~-------------------7-7-7-7-7-5---|


Chorus  2x


D |----------------------------------|   3x
A |----------------------------------|
F |----9-9-9--7-7-7------------------|
C |----9-9-9--7-7-7--7-7-7--5-5-5----|
G |----7-7-7--5-5-5--7-7-7--5-5-5----|
C |------------------7-7-7--5-5-5----|

D |----------------------------------|
A |----------------------------------|
F |----7-7-7-7-7-7-------------------|
C |----7-7-7-7-7-7---7-7-7-7-7-5-----|
G |----5-5-5-5-5-5---7-7-7-7-7-5-----|
C |------------------7-7-7-7-7-5-----|

Outro

D |-----------------------------------| 4x
A |-----------------------------------|
F |-----------------------------------|
C |----5-5-2--5-5-2--5-5-2-7-5-7-8----|
G |----5-5-2--5-5-2--5-5-2-7-5-7-8----|
C |----5-5-2--5-5-2--5-5-2-7-5-7-8----|
Tap to rate this tab
# A B C D E F G H I J K L M N O P Q R S T U V W X Y Z