Song name
# A B C D E F G H I J K L M N O P Q R S T U V W X Y Z

Nickelback - Animals tab

                            Animals - Nickelback.
                      _______________________________

This is how I play Animals by Nickelback. Taken from the album, All The Roght Reasons.
This song uses only 4 riffs! I've written the four riffs, & at the bottom there is an 
sequence of the song.
It's nice and easy, enjoy!


Tabbed by:
Email:

Tuning:Drop D

-Riff 1.
e|----------------------------------------------------------------------------|
B|----------------------------------------------------------------------------|
G|-----------3--5-------------------------------------------------------------|
D|--12-12-3--3--5--5-5--------------------------------------------------------|
A|--12-12-3--3--5--5-5--------------------------------------------------------|
D|--12-12-3--------5-5--------------------------------------------------------|

-Riff 2.
e|----------------------------------------------------------------------------|
B|----------------------------------------------------------------------------|
G|-----------3--5-------------------------------------------------------------|
D|--12-12-3--3--5--5-5----8-8-------------------------------------------------|
A|--12-12-3--3--5--5-5----8-8---10--10----12----------------------------------|
D|--12-12-3--------5-5----8-8---10--10----12----------------------------------|

-Riff 3.
e|----------------------------------------------------------------------------|
B|----------------------------------------------------------------------------|
G|-----------------------------------------------5-5---5-5-5---5--------------|
D|--0-0--0-0-0--0-0-0--0-0-0--0-5-5---5-5-5---5--5-5---5-5-5---5--------------|
A|--0-0--0-0-0--0-0-0--0-0-0--0-5-5---5-5-5---5--3-3---3-3-3---3--------------|
D|--0-0--0-0-0--0-0-0--0-0-0--0-5-5---5-5-5---5-------------------------------|

-Riff 4. Played fast!
e|----------------------------------------------------------------------------|
B|----------------------------------------------------------------------------|
G|-7---------------7---------------7---------------7---------------7~---------|
D|-7-0-0-0-0-0-0-0-7-0-0-0-0-0-0-0-7-0-0-0-0-0-0-0-7-0-0-0-0-0-0-0-7~---------|
A|-5-0-0-0-0-0-0-0-5-0-0-0-0-0-0-0-5-0-0-0-0-0-0-0-5-0-0-0-0-0-0-0-5~---------|
D|---0-0-0-0-0-0-0---0-0-0-0-0-0-0---0-0-0-0-0-0-0---0-0-0-0-0-0-0------------|

SONG SEQUENCE:

INTRO:
 riff 1 x4
 riff 2
 riff 1
 riff 2
 riff 1

VERSE:
 no guitar for 8 bars (32 beats)
 riff 3 x2

CHORUS:
 riff 2 x4

POST-CHORUS:
 riff 1 x4

VERSE:
 no guitar for 8 bars (32 beats)
 riff 3 x2

CHORUS:
 riff 2 x4

POST-CHORUS:
 riff 1 x4

VERSE:
 no guitar for 8 bars (32 beats)
 riff 3 x2

CHORUS:
 riff 2 x 4

POST-CHORUS:
 riff 2 x 4

OUTRO:
 riff 4
Tap to rate this tab
# A B C D E F G H I J K L M N O P Q R S T U V W X Y Z