Nickelback - Next Go Round tab







-------------------------------------------------------------------------------
			     NEXT GO ROUND - Nickelback
-------------------------------------------------------------------------------
Tabbed by:Damian Andersen
Email:andersen_09@hotmail.com

Tuning: C G C F A D

P.M.= Palm Mute

b= Bend

p= Pull Off

h= Hammer On

br= Bend Release

intro
D|---------------------------------------------------------------------------|X3
A|---------------------------------------------------------------------------|
F|----5---------5---------5--------------------------------------------------|
C|----4---------7---------7--------------------------------------------------|
G|----5---------5---------5-----------10--10--10/9---------------------------|
C|------0-0-0-0---0-0-0-0---0-0-0-0----8---8---8/7---------------------------|
        pm-----   pm-----   pm-----


D|---------------------------------------------------------------------------|
A|---------------------------------------------------------------------------|
F|---------------------------------------------------------------------------|
C|---------------------------------------------------------------------------|
G|-------------------0--3/5--10--10--10/12-----------------------------------|
C|----0---0---0------0--3/5--10--10--10/12-----------------------------------|
      pm-------


D|--------------------------------------------------------------------------------------------X2
A|-----------------------------------------------------------------------------------------------|
F|-------5---------------5--------5----------------------------5---------------------------------|
C|-------4---------------4--------4----------------------------4---------------------------------|
G|-------5---------------5--------5---7--10--10--10--12--------5---------------10---3--5--3/-5--7|
C|-0--0-----0--0-0-0--0-----0--0------7--10--10--10--12--0--0-----0--0-0-0--0--10---3--5--3/-5--7|
  PM---     PM---------     PM--                         PM--     PM---------       PM--

Verse
D|----------------------------------------------------------------------------------------|
A|----------------------------------------------------------------------------------------|
F|----------------------------------------------------------------------------------------|
C|--------------------------------------------------------------5-------------5-----------|
G|--7--10--10--10--12-------------0--3/5--10--10--10/12---------4-------------4-----------|
C|--7--10--10--10--12-------------0--3/5--10--10--10/12---0--0--5-0--0-0-0--0-5-----------|
                                                          PM--    PM---------


D|------------------------------------------------------------------------------------------------|
A|------------------------------------------------------------------------------------------------|
F|------------------------------------------------------------------------------------------------|
C|---------5----------------------------5-----------------5---------------------------------------|
G|---------4--7--10--10--10--12---------4-----------------4------10------3--5--3/5--7-------------|
C|-0---0---5--7--10--10--10--12---0--0--5---0--0-0-0--0---5---0--10------3--5--3/5--7-------------|



D|---------------------------------------------------------------------------|
A|---------------------------------------------------------------------------|
F|---------------------------------------------------------------------------|
C|---------------------------------------------------------------------------|
G|-7--10--10--10--12---------0---3/5--10--10--10/12--------------------------|
C|-7--10--10--10--12---------0---3/5--10--10--10/12--------------------------|


D|--------------------------------------------------------------------------------|
A|--------------------------------------------------------------------------------|
F|--5-----------5----------5--------------------------5----------5----------------|
C|--4-----------7----------7--------------------------4----------7----------------|
G|--5-----------5----------5-----------10--10--10/9---5----------5----------------|
C|----0-0-0--0----0-0-0--0---0-0-0--0---8---8---8/7-----0-0-0--0---0-0-0--0-------|



D|---------------------------------------------------------------------------|
A|---------------------------------------------------------------------------|
F|-5-------------------------------------------------------------------------|
C|-7-------------------------------------------------------------------------|
G|-5------------10--10--10-/9---10--10--10/9---10--10--10/9---3b-------------|
C|---0-0-0--0----8---8---8/-7----8---8---8/7----8---8---8/7------------------|


Chorus
D|---------------------------------------------------------------------------|X4
A|---------------------------------------------------------------------------|
F|---------------------------------------------------------------------------|
C|--7-7---3-3-3-5----------5-5-5-5--7-7---3-3-3-5---------5-5-5-5-7----------|
G|--5-5-0-1-1-1-3-5-5-5--5-3-3-3-3--5-5-0-1-1-1-3-5-5-5-5-3-3-3-3-5----------|
C|----------------5-5-5--5------------------------5-5-5-5--------------------|


Now just repeat the verse and the chorus

Then do this
D|----------------------------------------------------------------------------------------------|
A|----------------------------------------------------------------------------------------------|
F|------5-------------5--------5---------------------------5--------------5---------------------|
C|------4-------------4--------4---------------------------4--------------4---------------------|
G|------5-------------5--------5--7--10--10--10--12--------5--------------5-----10--3--5--3/5--7|
C|-0--0----0--0-0-0--0----0-0-----7--10--10--10--12---0--0----0--0-0-0--0----0--10--3--5--3/5--7|


D|----------------------------------------------------------------------------------|
A|----------------------------------------------------------------------------------|
F|--5-----------5-------------5--------------------------5----------5----------5----|
C|--4-----------7-------------7--------------------------4----------7----------7----|
G|--5-----------5-------------5-----------10--10--10/9---5----------5----------5----|
C|-----0-0-0--0----0-0-0--0-----0-0-0--0---8---8---8/7-----0-0-0--0---0-0-0--0------|


Solo: the rythm guitar just repeats this throughout the solo
D|---------------------------------------------------------------------------|
A|---------------------------------------------------------------------------|
F|--5----------5----------5--------------------------------------------------|
C|--4----------7----------7--------------------------------------------------|
G|--5----------5----------5------------10--10--10/9--------------------------|
C|----0-0-0--0---0-0-0--0---0-0-0--0----8---8---8/7--------------------------|


Ok this is the lead part to the solo
D|---------------------------------------------------------------------------|
A|---------------------------------------------------------------------------|
F|---------------------------------------------------------------------------|
C|---------------------------------------------------------------------------|
G|--------------3-----5-----3-----5p3--5---5/--12--10------------------------|
C|-0/12--/12-0---------------------------------------------------------------|



D|---------------------------------------------------------------------------|
A|-------------------------------------------------------------10------------|
F|--------------10-12-10---------------------10-12-10-12-10----10------------|
C|-----10-11-12----------12-10-12---10-11-12----------------12---------------|
G|---------------------------------------------------------------------------|
C|---------------------------------------------------------------------------|

D|---------------------------------------------------------------------------|
A|---------------------------------------------------------------------------|
F|-------------10-12-10-------12-10-------------21-10------------------------|
C|-0--10-11-12----------12-10-------12-10-10-12------------------------------|
G|-0-------------------------------------------------------------------------|
C|---------------------------------------------------------------------------|


D|-----------------------------------------------------13-10-----------------|
A|-----------------------------------13----13-10----10------13/15-15---------|
F|------------10-12-10------------10----12-------13--------------------------|
C|---12-10-12----------12-10-12----------------------------------------------|
G|---------------------------------------------------------------------------|
C|---------------------------------------------------------------------------|

D|----------------------------10---------------------------------------------|
A|----------13-------15-13/15------13----------------------------------------|
F|-12h14h15----14p12-------------------10-10---------------------------------|
C|---------------------------------------------------------------------------|
G|---------------------------------------------------------------------------|
C|---------------------------------------------------------------------------|

D|---------------------------------------------------------------------------|
A|---------------------------------------------------------------------------|
F|-12--10-12-10-12--10-12-10-12-10----10--12br--12--10--10-12br-12-----------|
C|---------------------------------12----------------------------------------|
G|---------------------------------------------------------------------------|
C|---------------------------------------------------------------------------|

D|---------------------------------------------------------------------------|
A|------------------------------------------------------10-------------------|
F|-10-12p10-12p10-12p10-12-12b-12b-10-12-12-12b---12b-------10--10-----------|
C|---------------------------------------------------------------------------|
G|---------------------------------------------------------------------------|
C|---------------------------------------------------------------------------|

D|---------------------------------------------------------------------------|
A|----12--12--12------12--12--12------12--12---------------------------------|
F|----12--12--12--10--12--12--12--12--12--12---10-12br---12--10--12----------|
C|---------------------------------------------------------------------------|
G|---------------------------------------------------------------------------|
C|---------------------------------------------------------------------------|

The next two tab parts are played at the same time

D|-15b-------------15--15--15--15br----15p13---------------------------------|
A|---------------------------------------------------------------------------|
F|---------------------------------------------------------------------------|
C|---------------------------------------------------------------------------|
G|---------------------------------------------------------------------------|
C|---------------------------------------------------------------------------|


D|---------------------------------------------------------------------------|
A|---------------------------------------------------------------------------|
F|---------------------------------------------------------------------------|
C|---------------------------------------------------------------------------|
G|--10--10--10/9---10--10--10/9---10--10--10/9----3b-------------------------|
C|---8---8---8/7----8---8---8/7----8---8---8/7-------------------------------|

Now repeat the chorus for one final time then end the song with this

D|---------------------------------------------------------------------------|X3
A|---------------------------------------------------------------------------|
F|-5-----------5-----------5-------------------------------------------------|
C|-4-----------7-----------7-------------------------------------------------|
G|-5-----------5-----------5--------------10----10---10/9--------------------|
C|---0-0-0--0----0-0-0--0----0-0-0--0------8-----8----8/7--------------------|


D|---------------------------------------------------------------------------|
A|---------------------------------------------------------------------------|
F|--5-----------------5-----------------5------------------------------------|
C|--4-----------------7-----------------7------------------------------------|
G|--5-----------------5-----------------5------------------------------------|
C|------0--0--0---0-------0--0--0---0----------------------------------------|

Please tell me any mistakes that ive made or changes I should make to this tab
other then that this is a kick butt song good luck.
Tap to rate this tab
 
# A B C D E F G H I J K L M N O P Q R S T U V W X Y Z