Song name
# A B C D E F G H I J K L M N O P Q R S T U V W X Y Z

Nickelback - Hero tab

Riff 1:
|(4)(4)-|(0)(0)-|(4)(4)-|(0)(0)-|
|(4)(4)-|(0)(2)-|(4)(4)-|(0)(2)-|            I?m not sure if the notes inside ( )  
|(6)(4)-|(1)(1)-|(6)(4)-|(1)(1)-|             are played but it sounds god.
|-6--6--|-2--2--|-6--6--|-2--2--|
|-6--6--|-2--2--|-6--6--|-2--2--|
|-4--4--|-0--0--|-4--4--|-0--0--|


|-------|-------|-------|-------------|
|-------|-------|-------|-------------|
|-------|-------|-------|-------------|
|-5--5--|-9--9--|-2--2--|-2--2--2--2--|
|-5--5--|-9--9--|-2--2--|-2--2--2--2--|
|-3--3--|-7--7--|-0--0--|-0--0--0--0--|
                        P.M.--------




Refrain:
|-------|-------|-------|-------|
|-------|-------|-------|-------|
|-------|-------|-------|-------|
|-5--5--|-7--7--|-9--9--|-9--9--|
|-5--5--|-7--7--|-9--9--|-9--9--|
|-3--3--|-5--5--|-7--7--|-7--7--|




Solo:
|----------------------|----------------------|--------|
|----------------------|----------------------|--------|
|-7--6--7--6--7--6-----|-7--6--7--6--7--6-----|--------|
|-------------------9--|-------------------7--|-9--11--|
|----------------------|----------------------|--------|
|----------------------|----------------------|--------|


|--------------------------|--------------------------|---------------|
|--------------------------|--------------------------|---------------|
|-11--9--11--9--11--9------|-11--9--11--9--11--9------|---------------|
|----------------------12--|----------------------11--|-9--9--12--12--|
|--------------------------|--------------------------|---------------|
|--------------------------|--------------------------|---------------|




Riff 2:

 1/8  1/16 1/16 1/16 1/16 1/16 1/8  1/16 1/16 1/16 1/16 1/16
|----------------3-----------------------------3------------|
|-----------3---------3-------------------3---------3-------|
|------4-------------------4---------4-------------------4--|
|-----------------------------------------------------------|
|-----------------------------------------------------------|
|-3-----------------------------3---------------------------|


 1/8  1/8  1/8  1/8  1/16 1/16 1/16 1/16
|----------------7----------------------|
|-----------5---------5-----------------|
|------6-------------------6---------6--|
|---------------------------------------|
|---------------------------------------|
|-5-----------------------------5-------|


 1/8  1/8  1/8  1/4  1/16 1/16 1/8  1/8  1/8  1/16 1/16 1/16 1/16 1/16
|----------------9------------|---------------9p7---------------------|
|-----------7---------7-------|-----------7---------7-----------------|
|------8-------------------8--|------8-------------------8---------8--|
|-----------------------------|---------------------------------------|
|-----------------------------|---------------------------------------|
|-7---------------------------|-7-----------------------------7-------|
(______________________________________________________________________)
           These two bars are only played the 1:st time


|-------------------|------|
|-------------------|------|
|-------------------|------|
|-9--9--9--9--9--9--|-9----|
|-9--9--9--9--9--9--|-9----|
|-7--7--7--7--7--7--|-7----|
    P.M.----------------
(___________________________)
  These two bars are only
   played the 2:nd time






Order:

Riff 1

Refrain

Riff 1

Solo

Riff 2 x2

Refrain 




There you have it! Good luck.

Andreas from the ?land Islands (Finland)
Tap to rate this tab
# A B C D E F G H I J K L M N O P Q R S T U V W X Y Z