Song name
# A B C D E F G H I J K L M N O P Q R S T U V W X Y Z

Nickelback - Leader Of Men tab

Help us improve GuitareTab! Take a short survey!
All guitars tune E down 1 full step to D.


Intro:
------
(play 6x)

Guitar 1:
---------
Play Clean with Flanger:



e:---------------------------
B:---------------------------
G:---------------------------
D:--0-2-----0-2-----0-2------
A:---------------------------
D:-------2-------2-------2---

After 2nd time Guiutar 2 
comes in and plays.
                  | 
Guitar 2 plays:   |
--------------    | 
(Repeat 4x)       | 
                 \/
e:------------------------------
B:------------------------------
G:------------------------------
D:----0--2--2--2--2--2--2--2----
A:----0--2--2--2--2--2--2--2----
D:----0--2--2--2--2--2--2--2----



Verse 1:
Guitar 2:
--------
(Repeat 4x)
Clean.
p.m ...................................................................................
   
   e:| |-------------------------------------------------------------------------------
   B:| |-------------------------------------------------------------------------------
   G:|*|-------------------------------------------------------------------------------
   D:|*|---2--2--2--2--2--2--2--2----5--5--5--5--5--5--5--5----0--0--0--0--0--0--0--0--
   A:| |---2--2--2--2--2--2--2--2----5--5--5--5--5--5--5--5----0--0--0--0--0--0--0--0--
   D:| |---2--2--2--2--2--2--2--2----5--5--5--5--5--5--5--5----0--0--0--0--0--0--0--0--

p.m.............................................   
   e:-------------------------------------------------| |
   B:-------------------------------------------------| |
   G:-------------------------------------------------|*|
   D:---2--2--2--2--2--2--2--2------------------------|*|
   A:---2--2--2--2--2--2--2--2------------------------| |
   D:---2--2--2--2--2--2--2--2------------------------| |


Guitar 1:
---------
(Repeat 4x)
Clean with Flanger.
   
   e:-------------------------------------------------------------------------------
   B:-------------------------------------------------------------------------------
   G:-------------------------------------------------------------------------------
   D:----------------2-------------------------5-------------------------0----------
   A:--------------------2-------------------------5-------------------------0------
   D:------------------------2-------------------------5-------------------------0--


THEN

Fig 1:
-----
    1st time
   |-------------------------------------------------------------------------------|
    2nd time  
   |------------------------|
p.m                     ..........................   ......................... 

   e:------------------------------------------------------------------------------
   B:------------------------------------------------------------------------------
   G:------------------------------------------------------------------------------
   D:----5----5----0----0----2--2--2--2--2--2--2--2----0--2--2--2--2--2--2--2------
   A:----5---------0---------2--2--2--2--2--2--2--2----0--2--2--2--2--2--2--2------
   D:----5---------0---------2--2--2--2--2--2--2--2----0--2--2--2--2--2--2--2------

Then Back To Verse 1:
             -------
After you have played Verse 1 and Fig 1 for the 2nd time you play this:    
                   -------     -----

Both Guitars
Play with Distortion:
Rhy Fig 1:
----------
e:---------------------------------------------------------------------------------
B:---------------------------------------------------------------------------------
G:---------------------------------------------------------------------------------
D:----0--2--2--2--2--2--2--2----0--2--2--2--2--2--2--2----0--2--2--2--2--2--2--2---
A:----0--2--2--2--2--2--2--2----0--2--2--2--2--2--2--2----0--2--2--2--2--2--2--2---
D:----0--2--2--2--2--2--2--2----0--2--2--2--2--2--2--2----0--2--2--2--2--2--2--2---



e:-------------------------------------------------
B:-------------------------------------------------
G:-------------------------------------------------
D:----0--2--2--2--2--2--2--2-----------------------
A:----0--2--2--2--2--2--2--2-----------------------
D:----0--2--2--2--2--2--2--2-----------------------




Ryh Fig 2:
----------
(Repeat 4x)

e:------------------------------------------------------------------------------
B:------------------------------------------------------------------------------
G:------------------------------------------------------------------------------
D:----0--2--2--2--2--2--2--2----5--5--5--5--5--5--5--5----0--0--0--0--0--0--0--0
A:----0--2--2--2--2--2--2--2----5--5--5--5--5--5--5--5----0--0--0--0--0--0--0--0
D:----0--2--2--2--2--2--2--2----5--5--5--5--5--5--5--5----0--0--0--0--0--0--0--0





e:-----------------------------------------
B:-----------------------------------------
G:-----------------------------------------
D:----0--2--2--2--2--2--2--2---------------
A:----0--2--2--2--2--2--2--2---------------
D:----0--2--2--2--2--2--2--2---------------



Then play
Fig 1A:
--------
e:--------------------------------------------------------
B:--------------------------------------------------------
G:--------------------------------------------------------
D:----5--5--5--5--5--5----0--0--0--0--0--0----------------
A:----5--5--5--5--5--5----0--0--0--0--0--0----------------
D:----5--5--5--5--5--5----0--0--0--0--0--0----------------

Then back to Rhy Fig 1:

Then play Rhy Fig 2:

Then this


e:---------------------------------------------
B:---------------------------------------------
G:---------------------------------------------
D:----5--5--5--5--5--5--5--5----0----2---------
A:----5--5--5--5--5--5--5--5----0----2---------
D:----5--5--5--5--5--5--5--5----0----2---------

Thats pritty much it

Hope u like it Mart.






Related for Leader Of Men tab