Nickelback - Never Gonna Be Alone tab

nickelback- never gonna be alone

chords fo song:
|--------------------|
|--5-----------------|
|--4----4----6----2--|
|--2----4----6----2--|guitar 1 plays these chords throughout the whole song
|-------2----4----0--|
|--------------------|

chorus for 2nd guitar:
|-----------------------------------------|--------------|
|------12--12---------8/10-10-10-10-10-10-|-10-10-10-9---|
|--7/9---13---9-11------------------------|-----------10-|
|-----------------------------------------|--------------|
|-----------------------------------------|--------------|
|-----------------------------------------|--------------|
listen for how many times to play this    |this is what you end the chorus  
part in each chorus.                      |off with. 



near end of song "you gotta live every single day..."
|-------------------------------------------|
|---7--7-7--5--5--5-5--5--5--5-5--3--3--3-3-|
|--6--6----6--6--6----4--4--4----4--4--4----|
|-------------------------------------------|
|-------------------------------------------|
|-------------------------------------------|

end the above part with this:
|-------|
|---5-5-|
|--6-4--|
|-------|
|-------|
|-------|     and that's it!
Tap to rate this tab
 
# A B C D E F G H I J K L M N O P Q R S T U V W X Y Z