Song name
# A B C D E F G H I J K L M N O P Q R S T U V W X Y Z

Nickelback - Money Bought tab

Money Bought
Nickelback
Silver Side Up (2001)

Money Bought: written by Chad Kroeger and Nickelback

NOTE: The bridge is a lot of tremelo and wah, just improv it, the notes are 
there.

GTR I - Drop C Tuning "Chad Kroeger" (d,A,F,C,G,C)
GTR II - Drop C Tuning "Ryan Peake" (d,A,F,C,G,C)
GTR III - Drop C Tuning "Chad Kroeger" clean w. reverb (d,A,F,C,G,C)
GTR IV - Drop C Tuning "Ryan Peake" Distortion w. reverb (d,A,F,C,G,C)
GTR V - Drop C Tuning "Chad Kroeger" Distortion w. wah (d,A,F,C,G,C)
GTR VI - Drop C Tuning "Ryan Peake" Distortion w. wah (d,A,F,C,G,C)

  GTR III
d|-------------------------------------------------|
A|-------------------------------------------------|
F|-------------------------------------------------|
C|--2--2--x--2--5--5--2--5--7--7--x--0--x--0--0--2-|
G|--2--2--x--2--5--5--2--5--7--7--x--0--x--0--0--2-|
C|--2--2--x--2--5--5--2--5--7--7--x--0--x--0--0--2-|

  GTR III
d|-------------------------------------------------|
A|-------------------------------------------------|
F|-------------------------------------------------|
C|--2--2--x--2--5--5--2--5--7--7-------------------|
G|--2--2--x--2--5--5--2--5--7--7-------------------|
C|--2--2--x--2--5--5--2--5--7--7-------------------|

  GTR III
d|-------------------------------------------------|
A|-------------------------------------------------|
F|-------------------------------------------------|
C|-----2--x--2--5--5--2--5--7--7--x--0--x--0--0--2-|
G|-----2--x--2--5--5--2--5--7--7--x--0--x--0--0--2-|
C|-----2--x--2--5--5--2--5--7--7--x--0--x--0--0--2-|

  GTR I,II
d|-------------------------------------------------|
A|-------------------------------------------------|
F|-------------------------------------------------|
C|-------------------------------------------------|
G|--x--x--x--x--x--x--x--x--x--------Pickslide-----|
C|--x--x--x--x--x--x--x--x--x--Pickslide-----------|
 |
 |GTR III
d|-------------------------------------------------|
A|-------------------------------------------------|
F|-------------------------------------------------|
C|--2--2--x--2--5--5--2--5--7----------------------|
G|--2--2--x--2--5--5--2--5--7----------------------|
C|--2--2--x--2--5--5--2--5--7----------------------|
 |
 |GTR IV
d|-------------------------------------------------|
A|----------------------------15-------------------|
F|-------------------------------14-12-14/16-------|
C|---------------------------------------------/14~|
G|-------------------------------------------------|
C|-------------------------------------------------|

Main Riff

  GTR I,II
d|-------------------------------------------------|
A|-------------------------------------------------|
F|-------------------------------------------------|
C|--2--2--x--2--5--5--2--5--7--7--x--0--x--0--0--2-|
G|--2--2--x--2--5--5--2--5--7--7--x--0--x--0--0--2-|
C|--2--2--x--2--5--5--2--5--7--7--x--0--x--0--0--2-|

  GTR I,II
d|-------------------------------------------------|
A|-------------------------------------------------|
F|-------------------------------------------------|
C|--2--2--x--2--5--5--2--5--7--7-------------------|
G|--2--2--x--2--5--5--2--5--7--7-------------------|
C|--2--2--x--2--5--5--2--5--7--7-----------7br7b---|

  GTR I,II
d|-------------------------------------------------|
A|-------------------------------------------------|
F|-------------------------------------------------|
C|-----2--x--2--5--5--2--5--7--7--x--0--x--0--0--2-|
G|-----2--x--2--5--5--2--5--7--7--x--0--x--0--0--2-|
C|-----2--x--2--5--5--2--5--7--7--x--0--x--0--0--2-|

  GTR I,II
d|-------------------------------------------------|
A|-------------------------------------------------|
F|-------------------------------------------------|
C|--2--2--x--2--5--5--2--5--7--7-------------------|
G|--2--2--x--2--5--5--2--5--7--7-------------------|
C|--2--2--x--2--5--5--2--5--7--7-------------------|
 |
 |GTR IV
d|-------------------------------------------------|
A|-------------------------------------------------|
F|---------------------------/15-14--x-14--xx-12p9~|
C|-------------------------------------------------|
G|-------------------------------------------------|
C|-------------------------------------------------|

Verse

  GTR I,II
d|-------------|-------------|-------------|
A|-------------|-------------|-------------|
F|-------------|-------------|-------------|
C|----BASS-----|----BASS-----|----BASS-----|
G|-------------|-------------|-------------|
C|-------------|-------------|-------------|

  GTR IV
d|-------------------------------------------------|
A|-------------------------------------------------|
F|-------------------------------------------------|
C|--------------------------7--7-----7-----7br7--5-|
G|-----7-----7-10-10--7-10-------------------------|
C|-------------------------------------------------|
       .     .  .  .  .  .  .  .                  

  GTR III
d|-------------------------------------------------|
A|-------------------------------------------------|
F|-------------------------------------------------|
C|--2--2-----2--5--5--2--5--7--7-----0-----0--0--2-|
G|--2--2-----2--5--5--2--5--7--7-----0-----0--0--2-|
C|--2--2-----2--5--5--2--5--7--7-----0-----0--0--2-|

  GTR III
d|-------------------------------------------------|
A|-------------------------------------------------|
F|-------------------------------------------------|
C|--2--2-----2--5--5--2--5--7--7----------------0h2|
G|--2--2-----2--5--5--2--5--7--7-------------------|
C|--2--2-----2--5--5--2--5--7--7-------------------|

  GTR III
d|-------------------------------------------------|
A|-------------------------------------------------|
F|-------------------------------------------------|
C|--2--2-----2--5--5--2--5--7--7-----0-----0--0--2-|
G|--2--2-----2--5--5--2--5--7--7-----0-----0--0--2-|
C|--2--2-----2--5--5--2--5--7--7-----0-----0--0--2-|

  GTR I
d|-------------------------------------------------|
A|----------------------------15b------------------|
F|----------------------------15b------------------|
C|-------------------------------------------------|
G|-------------------------------------------------|
C|-------------------------------------------------|
 |
 |GTR II
d|-------------------------------------------------|
A|-------------------------------------------------|
F|-------------------------------------------------|
C|-------------------------------------------------|
G|--------------------------------------Pickslide--|
C|--------------------------------------Pickslide--|
 |
 |GTR III
d|-------------------------------------------------|
A|-------------------------------------------------|
F|-------------------------------------------------|
C|--2--2--x--2--5--5--2--5--7----------------------|
G|--2--2--x--2--5--5--2--5--7----------------------|
C|--2--2--x--2--5--5--2--5--7----------------------|

Chorus

  GTR I,II
d|-------------------------------------------------|
A|-------------------------------------------------|
F|-------------------------------------------------|
C|--2--2-----2--5--5--2--5--7--7-----0-----0--0-0h2|
G|--2--2-----2--5--5--2--5--7--7-----0-----0--0----|
C|--2--2-----2--5--5--2--5--7--7-----0-----0--0----|

  GTR I,II
d|-------------------------------------------------|
A|-------------------------------------------------|
F|-------------------------------------------------|
C|--2--2-----2--5--5--2--5--7--7-----0-----0--0-0h2|
G|--2--2-----2--5--5--2--5--7--7-----0-----0--0----|
C|--2--2-----2--5--5--2--5--7--7-----0-----0--0----|

  GTR I,II
d|-------------------------------------------------|
A|-------------------------------------------------|
F|-------------------------------------------------|
C|--2--2-----2--5--5--2--5--7--7-----0-----0--0-0h2|
G|--2--2-----2--5--5--2--5--7--7-----0-----0--0----|
C|--2--2-----2--5--5--2--5--7--7-----0-----0--0----|

  GTR I,II
d|-------------------------------------------------|
A|-------------------------------------------------|
F|-------------------------------------------------|
C|--2--2-----2--5--5--2--5--7--7-------------------|
G|--2--2-----2--5--5--2--5--7--7-------------------|
C|--2--2-----2--5--5--2--5--7--7-----------7br7b---|

Verse 2

  GTR I,II
d|-------------|
A|-------------|
F|-------------|
C|----BASS-----|
G|-------------|
C|-------------|

  GTR IV
d|--------------0-----------------0----------------|
A|--5-----------------5----------------------------|
F|--------2-----------------2----------------------|
C|-------------------------------------------------|
G|-------------------------------------------------|
C|-------------------------------------------------|

  GTR I,II
d|-------------|
A|-------------|
F|-------------|
C|----BASS-----|
G|-------------|
C|-------------|

  GTR IV
d|-------------------------------------------------|
A|-------------------------------------------------|
F|-------------------------------------------------|
C|--------------------------7--7-----7-----7br7--5-|
G|-----7-----7-10-10--7-10-------------------------|
C|-------------------------------------------------|
                                                  
  GTR III
d|-------------------------------------------------|
A|-------------------------------------------------|
F|-------------------------------------------------|
C|--2--2-----2--5--5--2--5--7--7-----0-----0--0--2-|
G|--2--2-----2--5--5--2--5--7--7-----0-----0--0--2-|
C|--2--2-----2--5--5--2--5--7--7-----0-----0--0--2-|

  GTR III
d|-------------------------------------------------|
A|-------------------------------------------------|
F|-------------------------------------------------|
C|--2--2-----2--5--5--2--5--7--7----------------0h2|
G|--2--2-----2--5--5--2--5--7--7-------------------|
C|--2--2-----2--5--5--2--5--7--7-------------------|

  GTR III
d|-------------------------------------------------|
A|-------------------------------------------------|
F|-------------------------------------------------|
C|--2--2-----2--5--5--2--5--7--7-----0-----0--0--2-|
G|--2--2-----2--5--5--2--5--7--7-----0-----0--0--2-|
C|--2--2-----2--5--5--2--5--7--7-----0-----0--0--2-|

  GTR I
d|-------------------------------------------------|
A|----------------------------15b------------------|
F|----------------------------15b------------------|
C|-------------------------------------------------|
G|--------------------x--x-------------------------|
C|--------------------x--x-------------------------|
 |
 |GTR II
d|-------------------------------------------------|
A|-------------------------------------------------|
F|-------------------------------------------------|
C|-------------------------------------------------|
G|--------------------------------------Pickslide--|
C|--------------------------------------Pickslide--|
 |
 |GTR III
d|-------------------------------------------------|
A|-------------------------------------------------|
F|-------------------------------------------------|
C|--2--2--x--2--5--5--2--5--7----------------------|
G|--2--2--x--2--5--5--2--5--7----------------------|
C|--2--2--x--2--5--5--2--5--7----------------------|

Chorus

Chorus 2

  GTR I,II
d|-------------------------------------------------|
A|-------------------------------------------------|
F|-------------------------------------------------|
C|--2--2-----2--5--5--2--5--7--7-----0-----0--0-0h2|
G|--2--2-----2--5--5--2--5--7--7-----0-----0--0----|
C|--2--2-----2--5--5--2--5--7--7-----0-----0--0----|
 |
 |GTR IV
d|-------------------------------------------------|
A|--------------3--3--------------3----------------|
F|--------5-----------------5----------------------|
C|--5-----------------5----------------------------|
G|-------------------------------------------------|
C|-------------------------------------------------|

  GTR I,II
d|-------------------------------------------------|
A|-------------------------------------------------|
F|-------------------------------------------------|
C|--2--2-----2--5--5--2--5--7--7-----0-----0--0-0h2|
G|--2--2-----2--5--5--2--5--7--7-----0-----0--0----|
C|--2--2-----2--5--5--2--5--7--7-----0-----0--0----|
 |
 |GTR IV
d|-------------------------------------------------|
A|--------------3--3--------------3----------------|
F|--------5-----------------5----------------------|
C|--5-----------------5----------------------------|
G|-------------------------------------------------|
C|-------------------------------------------------|

  GTR I,II
d|-------------------------------------------------|
A|-------------------------------------------------|
F|-------------------------------------------------|
C|--2--2-----2--5--5--2--5--7--7-----0-----0--0-0h2|
G|--2--2-----2--5--5--2--5--7--7-----0-----0--0----|
C|--2--2-----2--5--5--2--5--7--7-----0-----0--0----|
 |
 |GTR IV
d|-------------------------------------------------|
A|--------------3--3--------------3----------------|
F|--------5-----------------5----------------------|
C|--5-----------------5----------------------------|
G|-------------------------------------------------|
C|-------------------------------------------------|

  GTR I,II
d|-------------------------------------------------|
A|-------------------------------------------------|
F|-------------------------------------------------|
C|--2--2-----2--5--5--2--5--7--7-------------------|
G|--2--2-----2--5--5--2--5--7--7-------------------|
C|--2--2-----2--5--5--2--5--7--7-----------7br7b---|
 |
 |GTR IV
d|-------------------------------------------------|
A|--------------3--3--------------3----------------|
F|--------5-----------------5----------------------|
C|--5-----------------5----------------------------|
G|-------------------------------------------------|
C|-------------------------------------------------|

Bridge

  GTR V
d|-------------------------------------------------|
A|-------------------------------------------------|
F|---/15~------------------------------------------|
C|-------------------------------------------------|
G|-------------------------------------------------|
C|-------------------------------------------------|
 |
 |GTR VI
d|-------------------------------------------------|
A|-------------------------------------------------|
F|-------------------------------------------------|
C|-------------------------------------------------|
G|--2--2-----2--5--5--2--5--7--7-------------------|
C|--2--2-----2--5--5--2--5--7--7-------------------|
    .  .     .  .  .  .  .  .  .

  GTR V
d|-------------------------------------------------|
A|-------------------------------------------------|
F|---15~------------------------/14~---------------|
C|-------------------------------------------------|
G|-------------------------------------------------|
C|-------------------------------------------------|
 |
 |GTR VI
d|-------------------------------------------------|
A|-------------------------------------------------|
F|-------------------------------------------------|
C|-------------------------------------------------|
G|--2--2-----2--5--5--2--5--7--7-------------------|
C|--2--2-----2--5--5--2--5--7--7-------------------|
    .  .     .  .  .  .  .  .  .

  GTR V
d|-------------------------------------------------|
A|-------------------------------------------------|
F|-------------------------------------------------|
C|--------------------------------7b~--------------|
G|-------------------------------------------------|
C|-------------------------------------------------|
 |
 |GTR VI
d|-------------------------------------------------|
A|-------------------------------------------------|
F|-------------------------------------------------|
C|-------------------------------------------------|
G|--2--2-----2--5--5--2--5--7--7-------------------|
C|--2--2-----2--5--5--2--5--7--7-------------------|
    .  .     .  .  .  .  .  .  .

  GTR VI
d|-------------------------------------------------|
A|-------------------------------------------------|
F|-------------------------------------------------|
C|-------------------------------------------------|
G|--2--2-----2--5--5--2--5--7--7-------------------|
C|--2--2-----2--5--5--2--5--7--7-------------------|
    .  .     .  .  .  .  .  .  .

Verse
Chorus
Chorus 2


| b  bend
| r  release bend
|trp triplet
|PH. pinch harmonic
|fbk feedback
| .  palm-mute
| /  slide up
| \  slide down
| h  hammer-on
| p  pull-off
| ~  vibrato
|(7) harmonic
| x  Mute note
===============================================================================
Tap to rate this tab
 
# A B C D E F G H I J K L M N O P Q R S T U V W X Y Z