Song name
# A B C D E F G H I J K L M N O P Q R S T U V W X Y Z

Nickelback - Just To Get High tab

Band: Nickelback
Song: Just to get high
Album: Dark horse
Tab: Alex Taylor

This is my first tab, which i learnt by hear so its not 100%, but it sounds
pretty accurate. If you think that I have made a mistake please give me
feedback, on where I went wrong. A.J.



e|------------------------------------------------10-8---8--------------------|
b|----------------------------------------/8-6-/10-----10-10-8-10-8-----------|
g|------------------------5-7-5-------/7----------------------------11-10-8---|
D|-------5-7-5-------5-7-8-----8-7--------------------------------------------|
A|--5-7-8-----8-7-------------------------------------------------------------|
D|----------------------------------------------------------------------------|


e|----------------------------------------------------------------------------|
b|----------------------------------------------------------------15--20b-----|
g|--/10---9--10--12--10-10-11---------7x6--10x6--12x6--14x6--17x5-------------|
D|------7-------7--7---7---------7--10----------------------------------------|
A|----------------------------------------------------------------------------|
D|----------------------------------------------------------------------------|


e|--17p-13--17p-13----17p-13-------15p-13--15p-13---15p-13--------------------|
b|-----------------15--------15-------------------15-------15-----------------|
g|------------------------------x4----------------------------x4--------------|
D|----------------------------------------------------------------------------|
A|----------------------------------------------------------------------------|
D|----------------------------------------------------------------------------|


e|--------13---13------8--8------|-10--8-------|------------------------------|
b|--13-13b--13b------8b--8--8b---|-------10-x4-|----10/-----------------------|
g|-------------------------------|-------------|----10/-----------------------|
D|----------------------------------------------------------------------------|
A|----------------------------------------------------------------------------|
D|----------------------------------------------------------------------------|
Tap to rate this tab
# A B C D E F G H I J K L M N O P Q R S T U V W X Y Z