Song name
# A B C D E F G H I J K L M N O P Q R S T U V W X Y Z

Nickelback - Kiss It Goodbye tab

Nickelback
Kiss it Goodbye

Drop D

Repeat Verse/Chorus at the end, have fun!


Intro

e--------------------------------|  2x
B--------------------------------|
G--------------------------------|
D---4-2-4---7---2-4-2-4---0-0----|
A---4-2-4---7---2-4-2-4---0-0----|
D---4-2-4---7---2-4-2-4---0-0----|
                          * *


Verse 1&2

e---------------------------------------------|  4x
B---------------------------------------------|
G---------------------------------------------|
D---------------------------------------------|
A-----------------2-2-------------------------|
D---4-4--7-7--2-2----------4-4--7-7--2-2--0-0-|


e---------------------------------------------|  2x Off Beat
B---------------------------------------------|
G------------4--------------------------------|
D---4--7--2--4------4--7--2--0----------------|
A---4--7--2--2------4--7--2--0----------------|
D---4--7--2---------4--7--2--0----------------|

e---------------------------------------------|  2x
B---------------------------------------------|
G---------------------------------------------|
D---------------------------------------------|
A-----------------2-2-------------------------|
D---4-4--7-7--2-2----------4-4--7-7--2-2--0-0-|

Pre Verse 1&2

e---------------------------------------------|  2x Off Beat
B---------------------------------------------|
G------------4--------------------------------|
D---4--7--2--4------4--7--2--0~---------------|
A---4--7--2--2------4--7--2--0~---------------|
D---4--7--2---------4--7--2--0~---------------|

Chorus

e---------------------------------------------|  4x Off Beat
B---------------------------------------------|
G------------4--------------------------------|
D---4--7--2--4------4--7--2--0----------------|
A---4--7--2--2------4--7--2--0----------------|
D---4--7--2---------4--7--2--0----------------|


Outro

e--------------------------------|  4x
B--------------------------------|
G--------------------------------|
D---4-2-4---7---2-4-2-4---0-0----|
A---4-2-4---7---2-4-2-4---0-0----|
D---4-2-4---7---2-4-2-4---0-0----|
Tap to rate this tab
# A B C D E F G H I J K L M N O P Q R S T U V W X Y Z