Song name
# A B C D E F G H I J K L M N O P Q R S T U V W X Y Z

Nickelback - Everything I Wanna Do tab

I just learnt this by ear so I hope its close enough :) Enjoy!


Intro:

D------------------------------------|
A------------------------------------|
F-------------------------------5----|
C-----5-7-----5-7-----5-7---------7--|
G---5-----5-5-----5-5-----5-5-5------|
C------------------------------------|

Bass Part:

D------------------------------------|
A------------------------------------|
F------------------------------------|
C------------------------------------|  x4
G------------------------------------|
C--0-0-0-0-0-0-----------------------|

Verse Intro:

D------------------------------------|
A-----8-10-----8-10---8-10---8-13-10-|
F---7------7-7------7------7---------|
C------------------------------------|
G------------------------------------|
C------------------------------------|

Verse:

D------------------------------------|
A------------------------------------|
F------------------------------------|
C------------------------------------|
G--------------0---------------------|
C--0-0-0-0-0-0-0---------------------|

D------------------------------------|
A------------------------------------|
F------------------------------------|
C------------------------------------|
G------------------------------------|
C--0-0-0-0-0-0-0-0-------------------|

x2

D------------------------------------|
A-----8-10-----8-10---8-10---8-13-10-|
F---7------7-7------7------7---------|
C------------------------------------|
G------------------------------------|
C------------------------------------|

Then just do the same thing again...

Chorus Intro:

D------------------------------------------|
A------------------------------------------|
F------------------------------------------|
C-----12-10-7-12-10-7-12-10-7-12-10-7-12b--|
G---5--------------------------------------|
C------------------------------------------|

Chorus:

D------------------------------------|
A------------------------------------|
F---7--------------------------------|
C---7---8---3---5--------------------| x4
G---5---8---3---5--------------------|
C-------8---3---5--------------------|

Chorus Intro:

D------------------------------------|
A------------------------------------|
F-----12-10-7-12-10-12b--------------|
C------------------------------------|
G---5--------------------------------|
C------------------------------------|

Verse, Chorus

Bridge:

D------------------------------------|
A------------------------------------|
F------------------------------------|
C---0-0-0-0---0-0-0-0---0-0-0-0------|
G---0-0-0-0---0-0-0-0---0-0-0-0------|
C---0-0-0-0---0-0-0-0---0-0-0-0------|

D---------------------|
A---------------------|
F---------------------|
C---0-0-0-0-0-0-0-0---|
G---0-0-0-0-0-0-0-0---|
C---0-0-0-0-0-0-0-0---|

Play the same thing for the solo

Chorus Intro, Chorus

D------------------------------------|
A------------------------------------|
F------------------------------------|
C---0-0-0-0---0-0-0-0---0-0-0-0------|
G---0-0-0-0---0-0-0-0---0-0-0-0------|
C---0-0-0-0---0-0-0-0---0-0-0-0------|

D-----------------------|
A-----------------------|
F-----------------------|
C---0-0-0-0---0-0-0-0---|
G---0-0-0-0---0-0-0-0---|
C---0-0-0-0---0-0-0-0---|
Tap to rate this tab
# A B C D E F G H I J K L M N O P Q R S T U V W X Y Z