Song name
# A B C D E F G H I J K L M N O P Q R S T U V W X Y Z

Nickelback - Someday drum

Someday By Nickelback Drum Tabs
I made this by listening and have play it like this in my band, and 
sounds right

SD  Snare Drum         C1  Crash cymbal 1  
BD  Bass Drum          C2  Crash cymbal 2
HT  High Tom
HH  High Hat

(Verse 1)

SD|----------------|----------------|----------------|--------0-0--00-| 

C1|X---------------|----------------|----------------|----------------|
HH|--X-X-X-X-0-X-0-|X-X-X-X-X-X-X-X-|X-X-X-X-X-0-X-0-|X-X-X-X-X-X-X-X-|
SD|----0-------0---|----0-------0---|----0-------0---|----0-------0---|
BD|0-------0-0-----|0---------0-----|0-------0-0-----|0---------0-----|

SD|0---------------|--0-----0-------|
HT|----------------|----0000--------|
BD|0-0-0-0-0-0-0-0-|0-0-0-0-0-------|

(Chorus 1)

C2|X---------------|----------------|----------------|----------------|
C1|--X-X-X-X-X-X-X-|X-X-X-X-X-X-X-X-|X-X-X-X-X-X-X-X-|X-X-X-X-X-X-X-X-|
SD|----0-------0---|----0-------0---|----0-------0---|----0-----0-0-0-|
BD|0-------0-0-----|0------0-00---0-|0-----0-0-----0-|0-0-----0-------|

C2|X---------------|----------------|----------------|----------------|
C1|--X-X-X-X-X-X-X-|X-X-X-X-X-X-X-X-|X-X-X-X-X-X-X-X-|X-X-X-X-X-X-----|
SD|----0-------0---|----0-------0---|----0-------0---|--0-0---0-------|
HT|----------------|----------------|----------------|------------00--|
BD|0-------0-0-----|0------0-00---0-|0-------0-----0-|0-----0--0---00|

(Verse 2)

C1|X---------------|----------------|----------------|----------------|
HH|--X-X-X-X-0-X-0-|X-X-X-X-X-X-X-X-|X-X-X-X-X-0-X-0-|X-X-X-X-X-X-X-X-|
SD|----0-------0---|----0-------0---|----0-------0---|----0-------0---|
BD|0-------0-0-----|0---------0-----|0-------0-0-----|0---------0-----|

HH|X-X-X-X-X-0-X-0-|X-X-X-X-X-X-X-X-|X-X-X-X-X-0-X-0-|X-X-X-X-X-X-X-X-|
SD|----0-------0---|----0-------0---|----0-------0---|----0-------0---|
BD|0-------0-0-----|0---------0-----|0-------0-0-----|0---------0-----|

SD|0---------------|--0-----0-------|
HT|----------------|----0000--------|
BD|0-0-0-0-0-0-0-0-|0-0-0-0-0-------|


(Chorus 2)

C2|X---------------|----------------|----------------|----------------|
C1|--X-X-X-X-X-X-X-|X-X-X-X-X-X-X-X-|X-X-X-X-X-X-X-X-|X-X-X-X-X-X-X-X-|
SD|----0-------0---|----0-------0---|----0-------0---|----0-----0-0---|
BD|0-------0-0-----|0------0-00---0-|0-----0-0-----0-|0-0-----0-----0-|

C2|X---------------|----------------|----------------|----------------|
C1|--X-X-X-X-X-X-X-|X-X-X-X-X-X-X-X-|X-X-X-X-X-X-X-X-|----------------|
SD|----0-------0---|----0-------0---|----0-------0---|--0-0---0---0-00|
HT|----------------|----------------|----------------|----------00----|
BD|0-------0-0-----|0------0-00---0-|0-------0-----0-|0-0-0-0-0-------|

(Solo) 

C2|X---------------|----------------|----------------|----------------|
C1|--X-X-X-X-X-X-X-|X-X-X-X-X-X-X-X-|X-X-X-X-X-X-X-X-|X-X-X-X---------|
SD|----0-------0---|----0-------0---|----0-------0---|0--0-0--00-0-00|
BD|0-0-----0-0-----|0-0----0--0-----|0-0-----0-0---0-|--0-------------|

C2|X---------------|----------------|----------------|----------------|
C1|--X-X-X-X-X-X-X-|X-X-X-X-X-X-X-X-|X-X-X-X---------|X---------------|
SD|----0-------0---|----0-------0---|----0--0-------|----------------|
HT|----------------|----------------|----------0-0000|0---------------|
BD|0-0-----0-0-----|0-0----0--0---0-|0-0----0--------|0---------------|

(Bridge)

  |----------------|----------------|----------------|----------------|

C1|X---------------|----------------|----------------|----------------|
HH|--X-X-X-X-0-X-0-|X-X-X-X-X-X-X-X-|X-X-X-X-X-0-X-0-|X-X-X-X-X-X-X-X-|
SD|----0-------0---|----0-------0---|----0-------0---|----0-------0---|
BD|0-------0-0-----|0---------0-----|0-------0-0-----|0---------0-----|

SD|0---------------|--0-----0-------|
HT|----------------|----0000--------|
BD|0-0-0-0-0-0-0-0-|0-0-0-0-0-------|

(Chorus 3)

C2|X---------------|----------------|----------------|----------------|
C1|--X-X-X-X-X-X-X-|X-X-X-X-X-X-X-X-|X-X-X-X-X-X-X-X-|X-X-X-X-X-X-X-X-|
SD|----0-------0---|----0-------0---|----0-------0---|----0-----0-0---|
BD|0-------0-0-----|0------0-00-----|0-------0-------|0-----0-0-----0-|

C2|X---------------|----------------|----------------|----------------|
C1|--X-X-X-X-X-X-X-|X-X-X-X-X-X-X-X-|X-X-X-X-X-X-X-X-|X-X-X-----------|
SD|----0-------0---|----0-------0---|----0-------0---|----0-0000000000|
BD|0-------0-0-----|0------0-00---0-|0-----0-0-----0-|0--0------------|

C1|X-X-X-X-X-X-X-X-|X-X-X-----------|X-X-X-----------|X---------------|
SD|----0-------0---|------0--000-000|--------0-------|----------------|
HT|----------------|----0---0---0---|----0-----0-000-|----------------|
BD|0-0---0-0-0---0-|0-0-------------|0-0----0---0----|0---------------|


Tap to rate this tab
# A B C D E F G H I J K L M N O P Q R S T U V W X Y Z