Song name
# A B C D E F G H I J K L M N O P Q R S T U V W X Y Z

Nickelback - Far Away tab

NICKELBACK - FAR AWAY
E standard tuned down a half-step to E-Flat and in drop D.

There's many ways of playing this song. Most play it with their guitar tuned to
E-standard while playing it in E-flat. I don't know how Nickelback recorded this song in the
studio but when I see video's of them playing it live; they play this song in E-Flat 
Tuning and in drop D-Flat. You can also watch them play this song in their "Live At 
Sturgis" DVD
which is also available in YouTube so you can see their finger positing during chord progression.

INTRO                                                  |     bar     |
E|----------------------------------|---------------------------------------|
B|---------0----------------0-------|---------0-----------------3-----------|
G|-----5-----5---5------5-----5---5-|-----5-----5---5-------5-----5---5-----|
D|---5---5-----5------5---5-----5---|---5---5-----5-------5---5-----5-------|
A|-3--------------------------------|-0-------------------------------------|
D|------------------5---------------|-------------------3-------------------|
_____________________________________________________________________________


1st Verse                                              |     bar     |
E|----------------------------------|---------------------------------------|
B|---------0----------------0-------|---------0-----------------3-----------|
G|-----5-----5---5------5-----5---5-|-----5-----5---5-------5-----5---5-----|
D|---5---5-----5------5---5-----5---|---5---5-----5-------5---5-----5-------|
A|-3--------------------------------|-0-------------------------------------|
D|------------------5---------------|-------------------3-------------------|
    This Time    -   This Place          Misused     -    Mistakes

                                                        |     bar     |
E|----------------------------------|---------------------------------------|
B|---------0----------------0-------|---------0-----------------3-----------|
G|-----5-----5---5------5-----5---5-|-----5-----5---5-------5-----5---5-----|
D|---5---5-----5------5---5-----5---|---5---5-----5-------5---5-----5-------|
A|-3--------------------------------|-0-------------------------------------|
D|------------------5---------------|-------------------3-------------------|
    Too Long     -    Too Late          Who Was I    -    To Make You Wait?

                                                        |     bar     |
E|----------------------------------|---------------------------------------|
B|---------0----------------0-------|---------0-----------------3-----------|
G|-----5-----5---5------5-----5---5-|-----5-----5---5-------5-----5---5-----|
D|---5---5-----5------5---5-----5---|---5---5-----5-------5---5-----5-------|
A|-3--------------------------------|-0-------------------------------------|
D|------------------5---------------|-------------------3-------------------|
 Just One Chance  -  Just One Breath   Just In Case  -  There's Just One left


                                     |     bar     |      F
E|---------0---------------0-------|---------3--------3~~~~~~~~~~~~~~~~~~~~~|
B|-----3-----3---3-----3-----3---3-|-----6-----6---6--6~~~~~~~~~~~~~~~~~~~~~|
G|---2---2-----2-----2---2-----2---|---5---5-----5----5~~~~~~~~~~~~~~~~~~~~~|
D|-0---------------0---------------|-3----------------3~~~~~~~~~~~~~~~~~~~~~|
A|---------------------------------|------------------3~~~~~~~~~~~~~~~~~~~~~|
D|---------------------------------|------------------3~~~~~~~~~~~~~~~~~~~~~|
  'Cause You Know  -  You Know               You Know~~~~~~~~~~
_____________________________________________________________________________

CHORUS            C                                 G
E|------0---0---0-0-0---0--0-------|------3---3---3-3-3---3--3---------|
B|------1---1---1-1-1---1--1-------|------3---3---3-3-3---3--3---------|
G|------0---0---0-0-0---0--0-------|------0---0---0-0-0---0--0---------|
D|------2---2---2-2-2---2--2-------|------0---0---0-0-0---0--0---------|
A|------3---3---3-3-3---3--3-------|------2---2---2-2-2---2--2---------|
D|------x---x---x-x-x---x--x-------|------x---x---x-x-x---x--x---------|
          That I Love You               I've Loved You All Along

                 Am7                                 F
E|------0---0---0-0-0---0--0-------|------x---x---x-x-x---x--x---------|
B|------1---1---1-1-1---1--1-------|------6---6---6-6-6---6--6---------|
G|------0---0---0-0-0---0--0-------|------5---5---5-5-5---5--5---------|
D|------2---2---2-2-2---2--2-------|------3---3---3-3-3---3--3---------|
A|------0---0---0-0-0---0--0-------|------3---3---3-3-3---3--3---------|
D|------x---x---x-x-x---x--x-------|------3---3---3-3-3---3--3---------|
           And I Miss you          -  We've Been Away For Far Too Long


E|------0---0---0-0-0---0--0-------|------3---3---3-3-3---3--3---------|
B|------1---1---1-1-1---1--1-------|------3---3---3-3-3---3--3---------|
G|------0---0---0-0-0---0--0-------|------0---0---0-0-0---0--0---------|
D|------2---2---2-2-2---2--2-------|------0---0---0-0-0---0--0---------|
A|------3---3---3-3-3---3--3-------|------2---2---2-2-2---2--2---------|
D|------x---x---x-x-x---x--x-------|------x---x---x-x-x---x--x---------|
          I Keep Dreaming          - You'll Be With Me And You'll Never Go

                 Am7                                 F
E|------0---0---0-0-0---0--0-------|------x---x---x-x-x---x--x~~~~~~~~~~|
B|------1---1---1-1-1---1--1-------|------6---6---6-6-6---6--6~~~~~~~~~~|
G|------0---0---0-0-0---0--0-------|------5---5---5-5-5---5--5~~~~~~~~~~|
D|------2---2---2-2-2---2--2-------|------3---3---3-3-3---3--3~~~~~~~~~~|
A|------0---0---0-0-0---0--0-------|------3---3---3-3-3---3--3~~~~~~~~~~|
D|------x---x---x-x-x---x--x-------|------3---3---3-3-3---3--3~~~~~~~~~~|
           Stop Breathing          -     If I Don't See You Anymore~~~
_____________________________________________________________________________

PRE-VERSE                                               |     bar     |
E|----------------------------------|---------------------------------------|
B|---------0----------------0-------|---------0-----------------3-----------|
G|-----5-----5---5------5-----5---5-|-----5-----5---5-------5-----5---5-----|
D|---5---5-----5------5---5-----5---|---5---5-----5-------5---5-----5-------|
A|-3--------------------------------|-0-------------------------------------|
D|------------------5---------------|-------------------3-------------------|

VERSE 2                                                 |     bar     |
E|----------------------------------|---------------------------------------|
B|---------0----------------0-------|---------0-----------------3-----------|
G|-----5-----5---5------5-----5---5-|-----5-----5---5-------5-----5---5-----|
D|---5---5-----5------5---5-----5---|---5---5-----5-------5---5-----5-------|
A|-3--------------------------------|-0-------------------------------------|
D|------------------5---------------|-------------------3-------------------|
     On My Knees   -    I'll Ask        Last Chance   -   For One Last Dance

                                                        |     bar     |
E|----------------------------------|---------------------------------------|
B|---------0----------------0-------|---------0-----------------3-----------|
G|-----5-----5---5------5-----5---5-|-----5-----5---5-------5-----5---5-----|
D|---5---5-----5------5---5-----5---|---5---5-----5-------5---5-----5-------|
A|-3--------------------------------|-0-------------------------------------|
D|------------------5---------------|-------------------3-------------------|
  'Cause With You  -  I'd Withstand      All Of It    -   To Hold Your Hand


                                                        |     bar     |
E|----------------------------------|---------------------------------------|
B|---------0----------------0-------|---------0-----------------3-----------|
G|-----5-----5---5------5-----5---5-|-----5-----5---5-------5-----5---5-----|
D|---5---5-----5------5---5-----5---|---5---5-----5-------5---5-----5-------|
A|-3--------------------------------|-0-------------------------------------|
D|------------------5---------------|-------------------3-------------------|
 I'd Give It All  -  I'd Give For Us   Give Anything  -  But I Won't Give Up


                                     |     bar     |      F
E|---------0---------------0-------|---------3--------3~~~~~~~~~~~~~~~~~~~~~|
B|-----3-----3---3-----3-----3---3-|-----6-----6---6--6~~~~~~~~~~~~~~~~~~~~~|
G|---2---2-----2-----2---2-----2---|---5---5-----5----5~~~~~~~~~~~~~~~~~~~~~|
D|-0---------------0---------------|-3----------------3~~~~~~~~~~~~~~~~~~~~~|
A|---------------------------------|------------------3~~~~~~~~~~~~~~~~~~~~~|
D|---------------------------------|------------------3~~~~~~~~~~~~~~~~~~~~~|
  'Cause You Know  -  You Know               You Know~~~~~~~~~~
_____________________________________________________________________________

CHORUS            C                                 G
E|------0---0---0-0-0---0--0-------|------3---3---3-3-3---3--3---------|
B|------1---1---1-1-1---1--1-------|------3---3---3-3-3---3--3---------|
G|------0---0---0-0-0---0--0-------|------0---0---0-0-0---0--0---------|
D|------2---2---2-2-2---2--2-------|------0---0---0-0-0---0--0---------|
A|------3---3---3-3-3---3--3-------|------2---2---2-2-2---2--2---------|
D|------x---x---x-x-x---x--x-------|------x---x---x-x-x---x--x---------|
          That I Love You               I've Loved You All Along

                 Am7                                 F
E|------0---0---0-0-0---0--0-------|------x---x---x-x-x---x--x---------|
B|------1---1---1-1-1---1--1-------|------6---6---6-6-6---6--6---------|
G|------0---0---0-0-0---0--0-------|------5---5---5-5-5---5--5---------|
D|------2---2---2-2-2---2--2-------|------3---3---3-3-3---3--3---------|
A|------0---0---0-0-0---0--0-------|------3---3---3-3-3---3--3---------|
D|------x---x---x-x-x---x--x-------|------3---3---3-3-3---3--3---------|
           And I Miss you          -  We've Been Away For Far Too Long


E|------0---0---0-0-0---0--0-------|------3---3---3-3-3---3--3---------|
B|------1---1---1-1-1---1--1-------|------3---3---3-3-3---3--3---------|
G|------0---0---0-0-0---0--0-------|------0---0---0-0-0---0--0---------|
D|------2---2---2-2-2---2--2-------|------0---0---0-0-0---0--0---------|
A|------3---3---3-3-3---3--3-------|------2---2---2-2-2---2--2---------|
D|------x---x---x-x-x---x--x-------|------x---x---x-x-x---x--x---------|
          I Keep Dreaming          - You'll Be With Me And You'll Never Go

                 Am7                                 F
E|------0---0---0-0-0---0--0-------|------x---x---x-x-x---x--x~~~~~~~~~~|
B|------1---1---1-1-1---1--1-------|------6---6---6-6-6---6--6~~~~~~~~~~|
G|------0---0---0-0-0---0--0-------|------5---5---5-5-5---5--5~~~~~~~~~~|
D|------2---2---2-2-2---2--2-------|------3---3---3-3-3---3--3~~~~~~~~~~|
A|------0---0---0-0-0---0--0-------|------3---3---3-3-3---3--3~~~~~~~~~~|
D|------x---x---x-x-x---x--x-------|------3---3---3-3-3---3--3~~~~~~~~~~|
           Stop Breathing          -     If I Don't See You Anymore~~~
_____________________________________________________________________________

BRIDGE                                                  |     bar     |
E|----------------------------------|---------------------------------------|
B|---------0----------------0-------|---------0-----------------3-----------|
G|-----5-----5---5------5-----5---5-|-----5-----5---5-------5-----5---5-----|
D|---5---5-----5------5---5-----5---|---5---5-----5-------5---5-----5-------|
A|-3--------------------------------|-0-------------------------------------|
D|------------------5---------------|-------------------3-------------------|
      So Far Away  -  (So Far Away) -  Been Far Away   -   For Far Too Long


                                                        |     bar     |
E|----------------------------------|---------------------------------------|
B|---------0----------------0-------|---------0-----------------3-----------|
G|-----5-----5---5------5-----5---5-|-----5-----5---5-------5-----5---5-----|
D|---5---5-----5------5---5-----5---|---5---5-----5-------5---5-----5-------|
A|-3--------------------------------|-0-------------------------------------|
D|------------------5---------------|-------------------3-------------------|
      So Far Away  -  (So Far Away) -  Been Far Away   -   For Far Too Long
_____________________________________________________________________________

PRE-CHORUS
                                     |     bar     |       F
E|---------0---------------0-------|---------3--------3~~~~~~~~~~~~~~~~~~~~~|
B|-----3-----3---3-----3-----3---3-|-----6-----6---6--6~~~~~~~~~~~~~~~~~~~~~|
G|---2---2-----2-----2---2-----2---|---5---5-----5----5~~~~~~~~~~~~~~~~~~~~~|
D|-0---------------0---------------|-3----------------3~~~~~~~~~~~~~~~~~~~~~|
A|---------------------------------|------------------3~~~~~~~~~~~~~~~~~~~~~|
D|---------------------------------|------------------3~~~~~~~~~~~~~~~~~~~~~|
      But You Know  -  You Know               You Know~~~~~~~~~~


CHORUS            C                                 G
E|------0---0---0-0-0---0--0-------|------3---3---3-3-3---3--3---------|
B|------1---1---1-1-1---1--1-------|------3---3---3-3-3---3--3---------|
G|------0---0---0-0-0---0--0-------|------0---0---0-0-0---0--0---------|
D|------2---2---2-2-2---2--2-------|------0---0---0-0-0---0--0---------|
A|------3---3---3-3-3---3--3-------|------2---2---2-2-2---2--2---------|
D|------x---x---x-x-x---x--x-------|------x---x---x-x-x---x--x---------|
             I Wanted              -     I Wanted You To Stay

                 Am7                               F
E|------0---0---0-0-0---0--0-------|-x   ~   ~   ~   ~   ~   ~   ~   ~ |
B|------1---1---1-1-1---1--1-------|-6~~~~~~~~~~~~~~~~~~~~~~~~~~~~~~~~~|
G|------0---0---0-0-0---0--0-------|-5~~~~~~~~~~~~~~~~~~~~~~~~~~~~~~~~~|
D|------2---2---2-2-2---2--2-------|-3~~~~~~~~~~~~~~~~~~~~~~~~~~~~~~~~~|
A|------0---0---0-0-0---0--0-------|-3~~~~~~~~~~~~~~~~~~~~~~~~~~~~~~~~~|
D|------x---x---x-x-x---x--x-------|-3~~~~~~~~~~~~~~~~~~~~~~~~~~~~~~~~~|
           'Cause I Needed         -     I Need To Hear You Say


                 C#                                G#
E|------x---x---x-x-x---x--x------|------x---x---x-x-x---x--x-----------|
B|------x---x---x-x-x---x--x------|------9---9---9-9-9---9--9-----------|
G|------6---6---6-6-6---6--6------|------8---8---8-8-8---8--8-----------|
D|------6---6---6-6-6---6--6------|------6---6---6-6-6---6--6-----------|
A|------4---4---4-4-4---4--4------|------6---6---6-6-6---6--6-----------|
D|------x---x---x-x-x---x--x------|------6---6---6-6-6---6--6-----------|
            I Love you                  I Loved You All Along

                 A#                                 F
E|---x----x----x--x--x----x---x---|------x---x---x-x-x---x--x-----------|
B|--11---11---11-11-11---11--11---|------6---6---6-6-6---6--6-----------|
G|--10---10---10-10-10---10--10---|------5---5---5-5-5---5--5-----------|
D|---8----8----8--8--8----8---8---|------3---3---3-3-3---3--3-----------|
A|---8----8----8--8--8----8---8---|------3---3---3-3-3---3--3-----------|
D|---8----8----8--8--8----8---8---|------3---3---3-3-3---3--3-----------|
          And I Forgive You       -   For Being Away For Far Too Long


                 C#                                 G#
E|------x---x---x-x-x---x--x------|------x---x---x-x-x---x--x-----------|
B|------x---x---x-x-x---x--x------|------9---9---9-9-9---9--9-----------|
G|------6---6---6-6-6---6--6------|------8---8---8-8-8---8--8-----------|
D|------6---6---6-6-6---6--6------|------6---6---6-6-6---6--6-----------|
A|------4---4---4-4-4---4--4------|------6---6---6-6-6---6--6-----------|
D|------x---x---x-x-x---x--x------|------6---6---6-6-6---6--6-----------|
          So Keep Breathing       - 'Cause I'm Not Leaving You Anymore


                 A#                                 F
E|---x----x----x--x--x----x---x---|------x---x---x-x-x---x--x-----------|
B|--11---11---11-11-11---11--11---|------6---6---6-6-6---6--6-----------|
G|--10---10---10-10-10---10--10---|------5---5---5-5-5---5--5-----------|
D|---8----8----8--8--8----8---8---|------3---3---3-3-3---3--3-----------| X2
A|---8----8----8--8--8----8---8---|------3---3---3-3-3---3--3-----------|
D|---8----8----8--8--8----8---8---|------3---3---3-3-3---3--3-----------|
             Believe It           -   Hold On To Me And Never Let Me go
Tap to rate this tab
# A B C D E F G H I J K L M N O P Q R S T U V W X Y Z