Song name
# A B C D E F G H I J K L M N O P Q R S T U V W X Y Z

Nickelback - Saturday Nights Alright For Fighting tab

Artisit: Nickelback
Song: Saturday Nights Alright For Fighting
Tabbed by: Mike Layton (Laytonium@wowway.com)

Intro:

D|---------------------------------------------------------------------------|
A|-12-12-11--12-12-11--12-12-11--10-10-9--10-10-9----------------------------|
F|-11-11-11--11-11-11--11-11-11--9--9--9--9--9--9----------------------------|
C|---------------------------------------------------------------------------|
G|---------------------------------------------------------------------------|
C|---------------------------------------------------------------------------|

Verse:

D|---------------------------------------------------------------------------|
A|---------------------------------------------------------------------------|
F|-4-4-4-4-4-4-4-4-4-4-4-4--2-2-2-2-2-2-2-2-2-2-2-2--------------------------|
C|-4-4-4-4-4-4-4-4-4-4-4-4--2-2-2-2-2-2-2-2-2-2-2-2--------------------------|
G|-2-2-2-2-2-2-2-2-2-2-2-2--0-0-0-0-0-0-0-0-0-0-0-0--------------------------|
C|---------------------------------------------------------------------------|
     * * * * * * * * * *      * * * * * * * * * *

Cont.
D|---------------------------------------------------------------------------|
A|---------------------------------------------------------------------------|
F|--------------------------4-4-4-4-4-4-4-4-4-4-4-4--------------------------|
C|-2-2-2-2-2-2-2-2-2-2-2-2--4-4-4-4-4-4-4-4-4-4-4-4--------------------------|
G|-2-2-2-2-2-2-2-2-2-2-2-2--2-2-2-2-2-2-2-2-2-2-2-2--------------------------|
C|-2-2-2-2-2-2-2-2-2-2-2-2---------------------------------------------------|
     * * * * * * * * * *      * * * * * * * * * *

Pre-Chorus:

D|---------------------------------------------------------------------------|
A|---------------------------------------------------------------------------|
F|---------------------------------------------------------------------------|
C|-4-4-4-4-4-4-4-4-4-4-4-4-////\\\\------------------------------------------|
G|-4-4-4-4-4-4-4-4-4-4-4-4-////\\\\------------------------------------------|
C|-4-4-4-4-4-4-4-4-4-4-4-4-////\\\\------------------------------------------|

Chorus:

D|---------------------------------------------------------------------------|
A|---------------------------------------------------------------------------|
F|---------------------------------------------------------------------------|
C|-2-2-2-2-2-2-2-2-2-2-2-2--0-0-0-0-0-0-0-0-0-0-0-0--------------------------|
G|-2-2-2-2-2-2-2-2-2-2-2-2--0-0-0-0-0-0-0-0-0-0-0-0--------------------------|
C|-2-2-2-2-2-2-2-2-2-2-2-2--0-0-0-0-0-0-0-0-0-0-0-0--------------------------|

Cont.
D|---------------------------------------------------------------------------|
A|---------------------------------------------------------------------------|
F|-2-2-2-2-2-2-2-2-2-2-2-2---------------------------------------------------|
C|-2-2-2-2-2-2-2-2-2-2-2-2--2-2-2-2-2-2-2-2-2-2-2-2--------------------------|
G|-0-0-0-0-0-0-0-0-0-0-0-0--2-2-2-2-2-2-2-2-2-2-2-2--------------------------|
C|--------------------------2-2-2-2-2-2-2-2-2-2-2-2--------------------------|

Bridge:

D|---------------------------------------------------------------------------|
A|-10-10-9--10-10-9--10-10-9--8-8-7--8-8-7--8-8-7----------------------------|
F|-9--9--9--9--9--9--9--9--9--8-8-7--8-8-7--8-8-7----------------------------|
C|---------------------------------------------------------------------------|
G|---------------------------------------------------------------------------|
C|---------------------------------------------------------------------------|

Cont.
D|---------------------------------------------------------------------------|
A|-15-15-14--15-15-14--15-15-14--10-10-9--10-10-9--10-10-9-------------------|
F|-14-14-14--14-14-14--14-14-14--9--9--9--9--9--9--9--9--9-------------------|
C|---------------------------------------------------------------------------|
G|---------------------------------------------------------------------------|
C|---------------------------------------------------------------------------|

Solo:

D|-21~-19-18-17--17-18-17--17-18-17--17-18-17-15--15------|
A|-------------20--------20--------20-----------17--18~---|
F|--------------------------------------------------------|
C|--------------------------------------------------------|
G|--------------------------------------------------------|
C|--------------------------------------------------------|

Cont.
D|15---15-----15~---12-16-12--12-14-15-14-12----------------------------------|
A|--18~--18~----------------15--------------15-14-12-14-12-11-12-11-12--------|
F|--------------------------------------------------------------------14-12---|
C|----------------------------------------------------------------------------|
G|----------------------------------------------------------------------------|
C|----------------------------------------------------------------------------|

Cont.
D|--12--------------------------------------------------------------------|
A|----12-11-12-11--11-----------------------------------------------------|
F|14-------------14--14-12--------14-12-13--------------------------------|
C|------------------------14-12-14---------14--12-------------------------|
G|-------------------------------------------------14--13--12--11--10--9--|
C|------------------------------------------------------------------------|

Outro is pretty much the Chorus but just listen to the timing on the chords.

Key:

* Palm Mute
~ Ring Out
//// Slide Up
\\\\ Slide Down
Tap to rate this tab
# A B C D E F G H I J K L M N O P Q R S T U V W X Y Z