Song name
# A B C D E F G H I J K L M N O P Q R S T U V W X Y Z

Nickelback - Someday Acoustic chords

Highlighted       Show chord diagrams
Great and simple tab for acoustic.
=============================================
Nickelback - Someday (acoustic)
Tunning: EADGBE
=============================================
CHORDS:
Bm11 [x24430]
[ch]D9/G[/ch] [300230]
[ch]D9/G[/ch] [300230]
A4   [x02230]
D9   [xx0230]
E5   [022xxx]
A9   [x02200]
G    [320033]
E    [022100]
B9   [x24400]
=============================================

Verse 1:
Bm11                [ch]D9/G[/ch]         A4
How the hell did we wind up like this
    D9
Why weren´t we able
Bm11       [ch]D9/G[/ch]          A4
To see the signs that we missed
           D9
And try to turn the tables
Bm11             [ch]D9/G[/ch]          A4
I wish you would unclench your fists
      D9
And unpack your suitcase
Bm11                [ch]D9/G[/ch]        A4
Lately there´s been too much of this
     D9
Dont think its too late

Pre - Chorus:
E5 (palm muting)
Nothin´s wrong, just as long as
A9
you know that someday I will

Chorus:
G    D9
Someday, somehow
A9               E
gonna make it allright but not right now
G             A9        B9
I know you´re wondering when
                 A9
(You´re the only one who knows that)
G    D9
Someday, somehow
A9               E
gonna make it allright but not right now
G            A9          B9
I know you´re wondering when

Verse 2:
Well I hoped that since we´re here anyway
We could end up saying
Things we´ve always needed to say
So we could end up stringing
Now the story´s played out like this
Just like a paperback novel
Lets rewrite an ending that fits
Instead of a hollywood horror

Pre - Chorus:
Nothin´s wrong, just as long as
you know that someday I will

Chorus:
Someday, somehow
gonna make it allright but not right now
I know you´re wondering when
(You´re the only one who knows that)
Someday, somehow
gonna make it allright but not right now
I know you´re wondering when
(You´re the only one who knows that)

Solo:
  G       D9        A9      E
e---------------------------------------------------|
B---------------------------------------------------|
G----4-4b6-4b6---4-----4b6-4b6---4------------------|
D--------------7-----4---------7--------------------|
A--7---------------7--------------------------------|
E---------------------------------------------------|

  G       A9       B9
e---------------------------------------------------|
B---------------------------------------------------|
G---2-2/4---4/6----------6-6-6-7-6------------------|
D---------------9--9-9-9----------------------------|
A-5-------7-----------------------------------------|
E---------------------------------------------------|

  A9              G               A9
e---------------------------------------------------|
B---------------------------------------------------|
G-------6-6-6-7-6-------6-6-6-7-6-----9-9-6-6-7-6---|
D-9-9-9-----------9-9-9-----------7-7---------------|
A---------------------------------------------------|
E---------------------------------------------------|

  B9              A9              G     A9       B9
e---------------------------------------------------|
B---------------------7-7---------------------------|
G-------6-6-6-7-6---------7-7-9-7---6-7---9-9/11----|
D-9-9-9-----------7-7-------------9-----7--------9--|
A---------------------------------------------------|
E---------------------------------------------------|

Verse 3:
How the hell did we wind up like this
Why weren´t we able
To see the signs that we missed
And try to turn the tables
Now the story´s played out like this
Just like a paperback novel
Lets rewrite an ending that fits
Instead of a hollywood horror

Pre-Chorus:
Nothin´s wrong, just as long as
you know that someday I will

Chorus:
Someday, somehow
gonna make it allright but not right now
I know you´re wondering when
(You´re the only one who knows that)
Someday, somehow
gonna make it allright but not right now
I know you´re wondering when
(You´re the only one who knows that)
I know you´re wondering when
(You´re the only one who knows that)
gonna make it allright but not right now
I know you´re wondering when

Ending Solo:
  Bm11
e---------------------------------------------------|
B---------7---------7--------7----------------------|
G-----7---------7---------7-------------------------|
D---9---9-----9---9-----9---9-----------------------|
A-7---------7---------7-----------------------------|
E---------------------------------------------------|
Tap to rate this tab
# A B C D E F G H I J K L M N O P Q R S T U V W X Y Z