Song name
# A B C D E F G H I J K L M N O P Q R S T U V W X Y Z

Nickelback - Feelin Way Too Damn Good tab

-------------------------------------------------------------------------------
	               Feelin' Way Too Damn Good - Nickelback
-------------------------------------------------------------------------------
Tabbed by: Jordan Greczkowski
Email: jgsox33@sbcglobal.net
Tuning: Drop D

--Intro--
Guitar 1
e|-------------------------------------|
B|-------------------------------------|
G|-------------------------------------|
D|--0-0--00--0---00--0---XX-0--0---0---|  x2
A|--9-9--99--9---010-10--XX-10-10--10--|
D|--0-0--010-10--09--9---XX-8--8---8---|

Guitar 2
e|------------------------8~-------10~-------10p8--10p8--10p8--10p8--10p8--10-8--10-8--|
B|-----------------8~-----------------------8-----8-----8-----8-----8-----8-----8------|
G|-------------------------------------------------------------------------------------|
D|-------------------------------------------------------------------------------------|
A|-------------------------------------------------------------------------------------|
D|-------------------------------------------------------------------------------------|

--Verse 1--
e|-------------------------------------|
B|-------------------------------------|
G|-------------------------------------|
D|--0-0--00--0---00--0---XX-0--0---0---|  x2
A|--9-9--99--9---010-10--XX-10-10--10--|
D|--0-0--010-10--09--9---XX-8--8---8---|


e|--(8)--(10)--(5)-(5)---(3)-(5)-------|
B|--(11)-(13)--(8)-(8)---(6)-(8)-------|
G|--(10)-(12)--(7)-(7)---(5)-(7)-------|
D|---8----10----5---5-----3---5----0~--|
A|---8----10----5---5-----3---5----9~--|
D|---8----10----5---5-----3---5----0~--|


--Verse 2--
Guitar 1
e|-------------------------------------|
B|-------------------------------------|
G|-------------------------------------|
D|--0-0--00--0---00--0---XX-0--0---0---|  x2
A|--9-9--99--9---010-10--XX-10-10--10--|
D|--0-0--010-10--09--9---XX-8--8---8---|

Guitar 2
e|-----------------8~---------10~-------------------8~------------|
B|----------------------10~------------------------------10~------|
G|---------------------------------7~-------------------------7~--|
D|----------------------------------------------------------------|
A|----------------------------------------------------------------|
D|----------------------------------------------------------------|

Guitar 1
e|--(8)--(10)--(5)-(5)---(3)-(5)--------------------|
B|--(11)-(13)--(8)-(8)---(6)-(8)--------------------|
G|--(10)-(12)--(7)-(7)---(5)-(7)--------------------|
D|---8----10----5---5-----3---5----0-0-0-0-0-0-0-0--|
A|---8----10----5---5-----3---5----0-0-0-0-0-0-0-0--|
D|---8----10----5---5-----3---5----0-0-0-0-0-0-0-0--|
                       Both guitars^^ high distortion

--Chorus--
e|------1-1-------3---------3-3---------5-----------------------|
B|------1-1-------6---------3-3---------8-----------------------|
G|--3-3-3-3-------5-----5-5-5-5---------7-----------------------|
D|--3-3-3-3---3-3-3-3---5-5-5-5----X5-5-5-5---3-3-3-3--5-5-5-5--|
A|--1-1-1-1---3-3-3-3---3-3-3-3----X5-5-5-5---3-3-3-3--5-5-5-5--|
D|------------3-3-3-3--------------X5-5-5-5---3-3-3-3--5-5-5-5--|

e|--------------------------------|
B|--------------------------------|
G|--X12--X10--X7--X5--------------|
D|--X12--X10--X7--X5--------------|
A|--X10--X8---X5--X3--------------|
D|--------------------X--5--3--0--|

e|------1-1-------3---------3-3---------------------------------------|
B|------1-1-------6---------3-3---------------------------------------|
G|--3-3-3-3-------5-----5-5-5-5---------------------------------------|
D|--3-3-3-3---3-3-3-3---5-5-5-5----X5-5-5-5-5-5-5---3-3-3-3--5-5-5-5--|
A|--1-1-1-1---3-3-3-3---3-3-3-3----X5-5-5-5-5-5-5---3-3-3-3--5-5-5-5--|
D|------------3-3-3-3--------------X5-5-5-5-5-5-5---3-3-3-3--5-5-5-5--|


--Mini Solo--
Guitar 1
e|------------------------------------------|
B|------------------------------------------|
G|------------------------------------------|
D|--0-0-0-0--10-10-10-10--9-9-9-9--8-8-8-8--|  x2
A|--0-0-0-0--10-10-10-10--9-9-9-9--8-8-8-8--|
D|--0-0-0-0--10-10-10-10--9-9-9-9--8-8-8-8--|

Guitar 2
e|-------------------------------------------------|
B|--3-5-35b-3---3-5-35b-3---3-5-35b-3---5b-3-5b-3--|
G|-------------------------------------------------|
D|-------------------------------------------------|
A|-------------------------------------------------|
D|-------------------------------------------------|

Guitar 2
e|-----------------------------------------------|
B|--3-5-35b-3---3-5-35b-3---5b-3-5b-3-1--3-5b-3--|
G|-----------------------------------------------|
D|-----------------------------------------------|
A|-----------------------------------------------|
D|-----------------------------------------------|


--Verse 3--
e|-------------------------------------|
B|-------------------------------------|
G|-------------------------------------|
D|--0-0--00--0---00--0---XX-0--0---0---|  x2
A|--9-9--99--9---010-10--XX-10-10--10--|
D|--0-0--010-10--09--9---XX-8--8---8---|

e|--(8)--(10)--(5)-(5)---(3)-(5)--------------------|
B|--(11)-(13)--(8)-(8)---(6)-(8)--------------------|
G|--(10)-(12)--(7)-(7)---(5)-(7)--------------------|
D|---8----10----5---5-----3---5----0-0-0-0-0-0-0-0--|
A|---8----10----5---5-----3---5----0-0-0-0-0-0-0-0--|
D|---8----10----5---5-----3---5----0-0-0-0-0-0-0-0--|
                       Both guitars^^ high distortion

--Chorus--
e|------1-1-------3---------3-3---------5-----------------------|
B|------1-1-------6---------3-3---------8-----------------------|
G|--3-3-3-3-------5-----5-5-5-5---------7-----------------------|
D|--3-3-3-3---3-3-3-3---5-5-5-5----X5-5-5-5---3-3-3-3--5-5-5-5--|
A|--1-1-1-1---3-3-3-3---3-3-3-3----X5-5-5-5---3-3-3-3--5-5-5-5--|
D|------------3-3-3-3--------------X5-5-5-5---3-3-3-3--5-5-5-5--|

e|--------------------------------|
B|--------------------------------|
G|--X12--X10--X7--X5--------------|
D|--X12--X10--X7--X5--------------|
A|--X10--X8---X5--X3--------------|
D|--------------------X--5--3--0--|

e|------1-1-------3---------3-3---------------------------------------|
B|------1-1-------6---------3-3---------------------------------------|
G|--3-3-3-3-------5-----5-5-5-5---------------------------------------|
D|--3-3-3-3---3-3-3-3---5-5-5-5----X5-5-5-5-5-5-5---3-3-3-3--5-5-5-5--|
A|--1-1-1-1---3-3-3-3---3-3-3-3----X5-5-5-5-5-5-5---3-3-3-3--5-5-5-5--|
D|------------3-3-3-3--------------X5-5-5-5-5-5-5---3-3-3-3--5-5-5-5--|


--Solo--
Guitar 1
e|------------------------------------------|
B|------------------------------------------|
G|------------------------------------------|
D|--0-0-0-0--10-10-10-10--9-9-9-9--8-8-8-8--|  x4
A|--0-0-0-0--10-10-10-10--9-9-9-9--8-8-8-8--|
D|--0-0-0-0--10-10-10-10--9-9-9-9--8-8-8-8--|

Guitar 2
e|-------------------------------------------------|
B|--3-5-35b-3---3-5-35b-3---3-5-35b-3---5b-3-5b-3--|
G|-------------------------------------------------|
D|-------------------------------------------------|
A|-------------------------------------------------|
D|-------------------------------------------------|

Guitar 2
e|-----------------------------------------------|
B|--3-5-35b-3---3-5-35b-3---5b-3-5b-3-1--3-5b-3--|
G|-----------------------------------------------|
D|-----------------------------------------------|
A|-----------------------------------------------|
D|-----------------------------------------------|

Guitar 2
e|-------------------------------------------------|
B|--3-5-35b-3---3-5-35b-3---3-5-35b-3---5b-3-5b-3--|
G|-------------------------------------------------|
D|-------------------------------------------------|
A|-------------------------------------------------|
D|-------------------------------------------------|

Guitar 2
e|-----------------------------------------------|
B|--3-5-35b-3---3-5-35b-3---5b-3-5b-3-1--3-5b-3--|
G|-----------------------------------------------|
D|-----------------------------------------------|
A|-----------------------------------------------|
D|-----------------------------------------------|


Then the intro is played again, then verse, then chorus. All the same as before. Enjoy, 
comment!
Tap to rate this tab
 
# A B C D E F G H I J K L M N O P Q R S T U V W X Y Z