Song name
# A B C D E F G H I J K L M N O P Q R S T U V W X Y Z

Nickelback - Saturday Nights Alright tab

Artist:Nickelback and Kid Rock
Title:Saturday Night's Alright for fighting
Album:Charlie's Angels - Full Throttle Soundtrack
Tabbed by:Natansh Kilpady
Email:natansh_18@hotmail.com

Tuning:Normal

INTRO(0:01)w/distortion (x1)
e|-------------------------------------------------------------------------|
B|-------------------------------------------------------------------------|
G|-------------------------------------------------------------------------|
D|--7-7-6---7-7-6--7-7-6--5-5-4--5-5-4-------------------------------------|
A|--7-7-7---7-7-7--7-7-7--5-5-5--5-5-5-------------------------------------|
E|--5-5-5---5-5-5--5-5-5--3-3-3--3-3-3-------------------------------------|
    ^Hear the song to get the timing right.
Then the song rolls out into the verse.

The song is mainly with
e|-------------------------------------------------------------------------|
B|-------------------------------------------------------------------------|
G|-------------------------------------------------------------------------|
D|--7-7-7---7-7-7--7-7-7--5-5-5--5-5-5--5-5-5------------------------------|
A|--7-7-7---7-7-7--7-7-7--5-5-5--5-5-5--5-5-5------------------------------|
E|--5-5-5---5-5-5--5-5-5--3-3-3--3-3-3--3-3-3------------------------------|

It's a great song!
Does anyone know the solo? Ill try to tab it out...
Any Questions/Corrections.....email me!
Tap to rate this tab
 
# A B C D E F G H I J K L M N O P Q R S T U V W X Y Z