Guitaretab - guitar tabs
Song name
# A B C D E F G H I J K L M N O P Q R S T U V W X Y Z

Nickelback - Throw Yourself Away tab

-------------------------------------------------------------------------------
Throw Yourself Away - Nickelback
-------------------------------------------------------------------------------

Tabbed by: A.Wheeler

This song is actually tuned to Drop C, but you can play it in standard tuning.  Enjoy!

Tuning: Standard

Into/Verse
e|------------------------------------------------|
B|------------------------------------------------|
G|--5----x-x-x---x-x-x---x-5----------------------|
D|--5----x-x-x---x-x-x---x-5----------------------|
A|--3----x-x-x---x-x-x---x-3----x------68~-------|
E|--3----x-x-x---x-x-x---x-3----x---/8------------|


Pre-Chorus
e|------------------------------------------------------------|
B|------------------------------------------------------------|
G|--5----x-x-x---x-x-x---x-5----8-/10-10-10---8-/10-10-10-----|
D|--5----x-x-x---x-x-x---x-5----8-/10-10-10---8-/10-10-10-----|
A|--3----x-x-x---x-x-x---x-3----6-/8--8--8----6-/8--8--8------|
E|--3----x-x-x---x-x-x---x-3----6-/8--8--8----6-/8--8--8------|


Chorus
e|-----------------------------------------------------------------------------|
B|-----------------------------------------------------------------------------|
G|--------8-----8-/10-10--x-x----8-/10-10--x-x----8-/10-10-10-10-10-8/10-------|
D|--6-----8-----8-/10-10--x-x----8-/10-10--x-x----8-/10-10-10-10-10-8/10-------|
A|--6-----6-----6-/8--8---x-x----6-/8--8---x-x----6-/8--8--8--8--8--6/8--------|
E|--4-----6-----6-/8--8---x-x----6-/8--8---x-x----6-/8--8--8--8-8--6/8--------|

e|-------------------------------------------------------------------------|
B|-------------------------------------------------------------------------|
G|--5----------5--------------5--x-x-x-x-x-x-x-x-x------5----------5-------|
D|--5----------5----------5---5--x-x-x-x-x-x-x-x-x--8---5----------5-------|
A|--3------6---3-------6--3---3--x-x-x-x-x-x-x-x-x--8---3------6---3-------|
E|--3---/8-----3---/8---------3--x-x-x-x-x-x-x-x-x--6---3---/8-----3-------|

e|-------------------------------|
B|-------------------------------|
G|--5--x-x-x-x-x-x-x-x-x---------|
D|--5--x-x-x-x-x-x-x-x-x--8------|
A|--3--x-x-x-x-x-x-x-x-x--8------|
E|--3--x-x-x-x-x-x-x-x-x--6------|

e|-----------------------------------------------------------------------------|
B|-----------------------------------------------------------------------------|
G|--------8-----8-/10-10--x-x----8-/10-10--x-x----8-/10-10-10-10-10-8/10-------|
D|--6-----8-----8-/10-10--x-x----8-/10-10--x-x----8-/10-10-10-10-10-8/10-------|
A|--6-----6-----6-/8--8---x-x----6-/8--8---x-x----6-/8--8--8--8--8--6/8--------|
E|--4-----6-----6-/8--8---x-x----6-/8--8---x-x----6-/8--8--8--8-8--6/8--------|

[ Tab from: http://www.guitaretab.com/n/nickelback/51731.html ]
Last Chorus
e|-----------------------------------------------------------------------------|
B|-----------------------------------------------------------------------------|
G|--------8-----8-/10-10-10-10-10-10-10-10-10-10----8/10-10-10---8/10-10-10----|
D|--6-----8-----8-/10-10-10-10-10-10-10-10-10-10----8/10-10-10---8/10-10-10----|
A|--6-----6-----6-/8--8--8--8--8--8--8--8--8--8-----6/8--8--8----6/8-8--8-----|
E|--4-----6-----6-/8--8--8--8--8--8--8-8--8--8-----6/8--8--8----6/8-8--8-----|

e|-----------------------------------------------------------------------------|
B|-----------------------------------------------------------------------------|
G|--------8-----8-/10-10--x-x----8-/10-10--x-x----8-/10-10-10-10-10-8/10-------|
D|--6-----8-----8-/10-10--x-x----8-/10-10--x-x----8-/10-10-10-10-10-8/10-------|
A|--6-----6-----6-/8--8---x-x----6-/8--8---x-x----6-/8--8--8--8--8--6/8--------|
E|--4-----6-----6-/8--8---x-x----6-/8--8---x-x----6-/8--8--8--8-8--6/8--------|

e|-------------------------------------------------------------------------|
B|-------------------------------------------------------------------------|
G|--5----------5--------------5--x-x-x-x-x-x-x-x-x------5----------5-------|
D|--5----------5----------5---5--x-x-x-x-x-x-x-x-x--8---5----------5-------|
A|--3------6---3-------6--3---3--x-x-x-x-x-x-x-x-x--8---3------6---3-------|
E|--3---/8-----3---/8---------3--x-x-x-x-x-x-x-x-x--6---3---/8-----3-------|

e|-------------------------------|
B|-------------------------------|
G|--5--x-x-x-x-x-x-x-x-x---------|
D|--5--x-x-x-x-x-x-x-x-x--8------|
A|--3--x-x-x-x-x-x-x-x-x--8------|
E|--3--x-x-x-x-x-x-x-x-x--6------|

e|-------------------------------------------------------------------------|
B|-------------------------------------------------------------------------|
G|--5----------5--------------5--x-x-x-x-x-x-x-x-x------5----------5-------|
D|--5----------5----------5---5--x-x-x-x-x-x-x-x-x--8---5----------5-------|
A|--3------6---3-------6--3---3--x-x-x-x-x-x-x-x-x--8---3------6---3-------|
E|--3---/8-----3---/8---------3--x-x-x-x-x-x-x-x-x--6---3---/8-----3-------|

e|-------------------------------|
B|-------------------------------|
G|--5--x-x-x-x-x-x-x-x-x---------|
D|--5--x-x-x-x-x-x-x-x-x--8------|
A|--3--x-x-x-x-x-x-x-x-x--8------|
E|--3--x-x-x-x-x-x-x-x-x--6------|

e|-----------------------------------------------------------------------------|
B|-----------------------------------------------------------------------------|
G|-------8-----8-/10-10-10-10-10-10-10--8/10-10-10-10--8/10-10-10-10-10---8/10-|
D|--6----8-----8-/10-10-10-10-10-10-10--8/10-10-10-10--8/10-10-10-10-10---8/10-|
A|--6----6-----6-/8--8--8--8--8--8--8---6/8--8--8--8---6/-8-8--8--8--8---6/-8-|
E|--4----6-----6-/8--8--8--8--8--8--8--6/8--8--8--8---6/-8-8--8--8-8---6/-8-|


Solo
e|-----------------------------------------------------------------------------------|
B|-----------------------------------------------------------------------------------|
G|---------------------------------------0-3-0-0-0-3/5\--7b-5--7b-5-8b10----------|
D|---------------------------<3b>-1-1-3----------------------------------------------|
A|-\\\--x-3--x-x-x-x-1-3-x-x---------------------------------------------------------|
E|-\\\-------------------------------------------------------------------------------|

Part of the solo has the low C note in it, so I replaced that note with a muted note.


Verse x4
Pre-Chrous
Chorus
Verse x4
Pre-Chorus
Chorus
Verse x2/Solo
Interlude
Verse x1
Pre-Chorus
Last Chorus


| /   slide up
| \   slide down
| h   hammer-on
| p   pull-off
| ~   vibrato
| <>    harmonic
| x   Mute note
Related for Throw Yourself Away tab