Song name
# A B C D E F G H I J K L M N O P Q R S T U V W X Y Z

Nickelback - Good Times Gone tab

Intro guitar 1 (acoustic)
|---------------------------------------------------------|
|---------------------------------------1--1-1-1-1--1-1-1-|
|---------------------------------------0--0-0-0-0--0-0-0-|
|-0--0-0-0-0--0-0-0--0--0-0-0-0--0-0-0--2--2-2-2-2--2-2-2-|
|-2--2-2-2-2--2-2-2--2--2-2-2-2--2-2-2--3--3-3-3-3--3-3-3-|
|-3--3-3-3-3--3-3-3--3--3-3-3-3--3-3-3--------------------|

|------------------------------------------------------|
|------------------------------------------------------|
|------------------------------------------------------|
|-0--0-0-0-0--0---0--0-0-0--0--0-0-0-0--0-0-0-0--0-0-0-|
|-2--2-2-2-2--2---2--2-2-2--1--1-1-1-2--2-2-2-1--1-1-1-|
|-3--3-3-3-3--3-6p3--3-3-3--3--3-3-3-3--3-3-3-3--3-3-3-| not sure how
						         long this lasts
|--------------------------------------------|
|-3--s5-5--5-5-5--5-5---------------------5--|
|-3--s5-5--5-5-5--5-5------12--12--12---12---|
|-------5--5-5-5--5-5----12--12--12---12-----|
|-------7--7-7-7--7-7------------------------|
|--------------------------------------------| repeat harmonics
                        * * * * * *  * * *     a few times
                        (harmonics)

Into Slide Guitar
|----------------------------------------------------------|
|-------------------12~---14----14b15r14-------------------|
|----------------------------------------------------------|
|-------------------------------------------10s12~---12-10-|
|-------------------------------------------10-------------|
|----------------------------------------------------------|

|-----------------------------------|
|-----------------------------------|
|-----12-14b-14b-14b15r14-12~----14-|
|-8---------------------------------|
|-----------------------------------|
|-----------------------------------|

Verse Guitar 2
|--------------------|
|--------------------|
|--0----0---0----0---|
|---0----0---0----0--|
|----------1--1-3--3-|
|-3--3-1--1----------| play during singing

"You can climb to the top of the high street..."
|------------------------------|
|------------------------------|
|--0--0--0-----0--0--0---0---5-|
|---0--0--0-----0--0--0---0--5-|
|-------------1--1--1--1-----3-|
|-1--1--1--1~------------------|


Verse Guitar 1 (acoustic)
|----------------------------------------------|
|-(12--s8)---(12--8)---(12--s8)---(10--s12-15)-|
|-(12--s7)---(12--7)---(12--s7)---(10--s12-12)-| play bracketed notes
|----------------------------------------------| in turn after each
|----------------------------------------------| singing part
|----------------------------------------------|

Verse Slide Guitar
|-----------------|
|-----------------|
|--15v--14v--12v--|
|-----------------|
|-----------------|
|-----------------|

Chorus 1st

Guitar 2
|---------------------------------------|
|---------------------------------------|
|--0----0----0----0---0----0----0----0--|
|---0----0----0----0---0----0----0----0-|
|-1--1-1--1-3--3-3--3-------------------|
|--------------------3--3-3--3-3--3-3---|

Slide Guitar
|-----------------------------------------------------------------|
|-----------------------------------------------------------------|
|-----------------------------------------------12~-------------12|
|-12b13r12--10-----12b13r12-10-12--12--14b15~--------14b15r14-12--|
|----------------10--------------10-------------------------------|
|-----------------------------------------------------------------|

Post Chorus
Guitar 2
|---------------------|
|---------------------|
|-----------3-3-3-5-5-|
|-5--5-3--3-3-3-3-5-5-|
|-5--5-3--3-1-1-1-3-3-|
|-3--3-1--1-1-1-1-3-3-| x 4

Slide Guitar
|------------------------------------------------|
|-----8v-----s12-10----------s12-12-10-----------|
|---------------------------5---------12---------|
|-5-5--------------8-8-8-10-------------8-8-8-10-|
|------------------------------------------------|
|------------------------------------------------|

|----------------------------------15-15-15-15-13-|
|---s12-s10-11--11-11-13---s12-s10----------------|
|-------------------------------------------------|
|-------------------------------------------------|
|-10---8-----------------10---8-------------------|
|-------------------------------------------------|

Verse 2
Guitar 2 same as verse 1

Slide Guitar (played in turn after each singing part)
|---------------------------|
|---------------------------|
|---------------------------|
|-----------------8-8--8-10-|
|-10-10--10-8-8--8----------|
|---------------------------|
(palm muted first time then normal second time)

|-------------------------|
|-8s12--------------------|
|-----10-7--7-------------|
|------------10-8-10--8---|
|----------------------10-|
|-------------------------|

|-10-10s13-13-8----------|
|--------------11-8-11-8-|
|------------------------|
|------------------------|
|------------------------|
|------------------------|

Chorus 2
Slide Guitar
|-15p13-13-15-------------------------------|
|-----------------15-15-15-14-13-11-13p11-8-|
|------------8--10--------------------------|
|-------------------------------------------|
|-------------------------------------------|
|-------------------------------------------|

Interlude
Guitar 2 play Post Chorus x 8

Slide Guitar
|------------------------------13v---------------------------|
|---s12-10-10-------11b12r11------------12-10-10-------------|
|---------------------------12-------------------------------|
|-----------------------------------------------8-8--8-10----|
|-10--------------10------------------10---------------------|
|------------------------------------------------------------|

|---------------------------|
|---10h12-8h10--11h13-15-13-|
|---------------------------|
|---------------------------|
|-10-----8----13------------|
|---------------------------|

This took a while because alot of it is quite hard to hear so I give no assurances that 
is right. If you have any problems with this don't leave some stupid complaint just tell 
what's wrong so I can change it.
Tap to rate this tab
# A B C D E F G H I J K L M N O P Q R S T U V W X Y Z