Song name
# A B C D E F G H I J K L M N O P Q R S T U V W X Y Z

Nickelback - If Everyone Cared tab

Song: If Everyone Cared
Artist: Nickelback
Album: All the Right Reasons
Tuning: Drop D (DADGBE)

    its hard to find this tab in atleast a good form of tab so i decided to quit waiting 
post one of my own..this was written out by ear so im not sure if the struming part is 
so im still working on it.it works well for me for the most part,lol


Intro/Verse
|--------------------------------------------------------------------|
|--------------------------------------------------------------------|
|--------------------------------------------------------------------|
|-----4---6-----6/7------7---9--7--------2---4-----4------4---6-----4|
|---4---4---4----------7---7-----------2---2---2--------4---4---4----|
|-4-----------4------7--------7------2-----------2----4-----------4--|

|--------------------------------------------------------------------|
|--------------------------------------------------------------------|
|--------------------------------------------------------------------|
|-----4---6-----6/7------7---9--7--------2---4-----4------4---6-----4|
|---4---4---4----------7---7-----------2---2---2--------4---4---4----|
|-4-----------4------7--------7------2-----------2----4-----------4--| x2


Strum
|-------------------------------------|
|-------------------------------------|
|-------------------------------------|
|---7--------2-------4----------------|
|---7--------2-------4----------------|
|---7--------2-------4----------------|x2
("Amen, I'm alive")


Chorus
|-------------------------------------|
|-------------------------------------|
|-------------------------------------|
|--0000-----7777-----2222-----4444----|
|--0000-----7777-----2222-----4444----|
|--0000-----7777-----2222-----4444----|

Hold
|------|
|------|
|------|
|--2---|
|--2---|
|--2---|


2 in distortion [partial mute] and 2 clean[acoustic]
|--------------------------------------------------------------------|
|--------------------------------------------------------------------|
|--------------------------------------------------------------------|
|-----4---6-----6/7------7---9--7--------2---4-----4------4---6-----4|
|---4---4---4----------7---7-----------2---2---2--------4---4---4----|
|-4-----------4------7--------7------2-----------2----4-----------4--|

|--------------------------------------------------------------------|
|--------------------------------------------------------------------|
|--------------------------------------------------------------------|
|-----4---6-----6/7------7---9--7--------2---4-----4------4---6-----4|
|---4---4---4----------7---7-----------2---2---2--------4---4---4----|
|-4-----------4------7--------7------2-----------2----4-----------4--| x2

Strum
|-------------------------------------|
|-------------------------------------|
|-------------------------------------|
|---7--------2-------4----------------|
|---7--------2-------4----------------|
|---7--------2-------4----------------|x2
("Amen, I'm alive")
Chorus
|-----------------------------------------|
|-----------------------------------------|
|-----------------------------------------|
|--0000-----7777-----2222-----4444---7777-|
|--0000-----7777-----2222-----4444---7777-|
|--0000-----7777-----2222-----4444---7777-|x5

!!PAUSE!!

|-----------------------------------------|
|-----------------------------------------|
|-----------------------------------------|
|--0000-----7777-----2222-----4444---7777-|
|--0000-----7777-----2222-----4444---7777-|
|--0000-----7777-----2222-----4444---7777-|x6

|-------------------------|
|-------------------------|
|-------------------------|
|--0000-----7777-----2222-|
|--0000-----7777-----2222-|
|--0000-----7777-----2222-|


Hold
|------|
|------|
|------|
|--2---|
|--2---|
|--2---|

       it took a while to clean it up so i hope you all like it =]
       if you figure out the struming part please fill me in on it so that i can fix it...ENJOY
Tap to rate this tab
# A B C D E F G H I J K L M N O P Q R S T U V W X Y Z