Song name
# A B C D E F G H I J K L M N O P Q R S T U V W X Y Z

Nickelback - Fight For All The Wrong Reasons tab

#----------------------------------PLEASE NOTE---------------------------------#
#This file is the author's own work and represents their interpretation of the #
#song. You may only use this file for private study, scholarship, or research. #
#------------------------------------------------------------------------------##

                         FIGHT FOR ALL THE WRONG REASONS
                            As recorded by Nickelback
                   (From the 2006 Album ALL THE RIGHT REASONS)

Words by Chad Kroeger

Music by Nickelback
Arranged by JacoCrew

         D5/E                 F5/G                 G5/A                 Csus2
      0 0 0 2 3 x        15 15 15 x x x         5 5 5 x x x        10 10 12 x x x

Gtr I (C G C F A D) - 'Untitled'
Gtr II (C G C F A D) - 'Untitled'

 Intro
  Moderately Q=86
 4/4
  Gtrs I, II
                                                                       ~~
   E. S S S   E  +S  S S S S S S S   S S S S S S   S  +E   S  S  S  S  E  S
|----------------------------------|----------------------------------------|
|-!3--3----------------------------|----------------------------------------|
|-!2--2----------------------------|----------------------------------------|
|-!0--0-0-0-/15-(15)---------3-----|-5-5-5-5-----/12-(12)-15-17-15-17-17-15-|
|-!0--0-0-0-/15-(15)-3-5-3-5---5-3-|-5-5-5-5-----/10-(10)-15-17-15-17-17-15-|
|-!0--0-0-0-/15-(15)---------------|-5-5-5-5-7-7-/10-(10)-15-17-15-17-17-15-|


                                                                      ~~
   E. S S S  E  +S  S S S S S S S   S S S S S S   S  +E   S  S  S  S  E  S
|---------------------------------|-----------------------------------------||
|-!3--3---------------------------|-----------------------------------------||
|-!2--2---------------------------|-----------------------------------------||
|-!0--0-0-0-15-(15)---------3-----|-5-5-5-5-----/12-(12)-15-17-15-17-17-15--||
|-!0--0-0-0-15-(15)-3-5-3-5---5-3-|-5-5-5-5-----/10-(10)-15-17-15-17-17-15--||
|-!0--0-0-0-15-(15)---------------|-5-5-5-5-7-7-/10-(10)-15-17-15-17-17-15--||


    Gtr II
     PM-------------------------------------------
     S  S  S  S  S  S  S  S  S  S  S S  S S  S S
||-----------------------------------------------|
||o-------10----10----------13----13-------------|
||--10-12----10----10-10-10----10----9-10-9-10-9-|
||-----------------------------------------------|
||o----------------------------------------------|
||-----------------------------------------------|
|
|   Gtr I
|    PM-------------------------------------------
|    S  S  S  S  S  S  S  S  S  S  S S  S S  S S
||-----------------------------------------------|
||o----------------------------------------------|
||-----------------------------------------------|
||---------------5----------------------5--------|
||o-----5--8--5-----8--5--8--------8-5----8--5-8-|
||---0-----------------------5--5----------------|


 -------------------------------------------|
   S  S  S  S  S  S S  S  S S  S S  S  S  S S
|----------------------------------------------|
|-------10----10-------------------------------|
|-10-12----12----10-9-10-12-9-12-9-10--9-10-9--|
|----------------------------------------------|
|----------------------------------------------|
|----------------------------------------------|
|
|-------------------------------------------|
|  S  S  S  S  S  S S  S  S S  S S  S  S  S S
|----------------------------------------------|
|----------------------------------------------|
|----------------------------------------------|
|----------------------------------------------|
|--------8----10--8----8----8-10-8-10-12-10-8--|
|--8--8-----8-------8----10--------------------|


   PM-------------------------------------------
   S  S  S  S  S  S  S  S  S  S  S S  S S  S S
|----------------------------------------------|
|-------10----10----------13----13-------------|
|-10-12----10----10-10-10----10----9-10-9-10-9-|
|----------------------------------------------|
|----------------------------------------------|
|----------------------------------------------|
|
|  PM-------------------------------------------
|  S  S  S  S  S  S  S  S  S  S  S S  S S  S S
|----------------------------------------------|
|----------------------------------------------|
|----------------------------------------------|
|--------------5----------------------5--------|
|-----5--8--5-----8--5--8--------8-5----8--5-8-|
|--0-----------------------5--5----------------|


 -------------------------------------------|
   S  S  S  S  S  S S  S  S S  S S  S  S  S S
|---------------------------------------------||
|-------10----10------------------------------||
|-10-12----12----10-9-10-12-9-12-9-10--9-10-9-||
|---------------------------------------------||
|---------------------------------------------||
|---------------------------------------------||
|
|-------------------------------------------|
|  S  S  S  S  S  S S  S  S S  S S  S  S  S S
|---------------------------------------------||
|---------------------------------------------||
|---------------------------------------------||
|---------------------------------------------||
|--------8----10--8----8----8-10-8-10-12-10-8-||
|--8--8-----8-------8----10-------------------||


 Verse
  W          W          W          W
|----------|----------|----------|------|
|----------|----------|----------|------|
|----------|----------|----------|------|
|----------|----------|----------|------|
|----------|----------|----------|------|
|----------|----------|----------|------|
|
| W          W          W          W
|----------|----------|----------|------|
|----------|----------|----------|------|
|----------|----------|----------|------|
|----------|----------|----------|------|
|----------|----------|----------|------|
|----------|----------|----------|------|


  PM--------------------------------------------------------------------|
  S S S S S S S S S S S S S S S S   S S S S  S S S S  S S  S S  S  S  S S
|---------------------------------|---------------------------------------|
|---------------------------------|---------------------------------------|
|---------------------------------|---------------------------------------|
|---------5---------------5-------|---------------------------------------|
|---5-8-5---8-5-8-----8-5---8-5-8-|-----8---10-8---8----8-10-8-10-12-10-8-|
|-0---------------5-5-------------|-8-8---8------8---10-------------------|


  PM--------------------------------------------------------------------|
  S S S S S S S S S S S S S S S S   S S S S  S S S S  S S  S S  S  S  S S
|---------------------------------|---------------------------------------|
|---------------------------------|---------------------------------------|
|---------------------------------|---------------------------------------|
|---------5---------------5-------|---------------------------------------|
|---5-8-5---8-5-8-----8-5---8-5-8-|-----8---10-8---8----8-10-8-10-12-10-8-|
|-0---------------5-5-------------|-8-8---8------8---10-------------------|


                               Chorus
                             $
  S S S S E  S  S S  S  E Q      E. S S S   E  +S  S S S S S S S
|----------------------------||----------------------------------|
|----------------------------||-!3--3----------------------------|
|-2-2---2-2------------------||-!2--2----------------------------|
|-0-0---0-0-12-12---12-12----||-!0--0-0-0-/15-(15)---------3-----|
|-0-0---0-0-10-10---10-10----||-!0--0-0-0-/15-(15)-3-5-3-5---5-3-|
|-0-0---0-0-10-10---10-10----||-!0--0-0-0-/15-(15)---------------|
|
| Gtr I
| S S S S E  S  S S  S  E Q      E. S S S   E  +S  S S S S S S S
|----------------------------||----------------------------------|
|----------------------------||-!3--3----------------------------|
|-2-2---2-2------------------||-!2--2----------------------------|
|-0-0---0-0-12-12---12-12----||-!0--0-0-0-/15-(15)---------3-----|
|-0-0---0-0-10-10---10-10----||-!0--0-0-0-/15-(15)-3-5-3-5---5-3-|
|-0-0---0-0-10-10---10-10----||-!0--0-0-0-/15-(15)---------------|


                                    ~~
  S S S S S S   S  +E   S  S  S  S  E  S
|----------------------------------------|
|----------------------------------------|
|----------------------------------------|
|-5-5-5-5-----/12-(12)-15-17-15-17-17-15-|
|-5-5-5-5-----/10-(10)-15-17-15-17-17-15-|
|-5-5-5-5-7-7-/10-(10)-15-17-15-17-17-15-|
|
|                                   ~~
| S S S S S S   S  +E   S  S  S  S  E  S
|----------------------------------------|
|----------------------------------------|
|----------------------------------------|
|-5-5-5-5-----/12-(12)-15-17-15-17-17-15-|
|-5-5-5-5-----/10-(10)-15-17-15-17-17-15-|
|-5-5-5-5-7-7-/10-(10)-15-17-15-17-17-15-|


                                                                      ~~
   E. S S S  E  +S  S S S S S S S   S S S S S S   S  +E   S  S  S  S  E  S
|---------------------------------|-----------------------------------------|
|-!3--3---------------------------|-----------------------------------------|
|-!2--2---------------------------|-----------------------------------------|
|-!0--0-0-0-15-(15)---------3-----|-5-5-5-5-----/12-(12)-15-17-15-17-17-15--|
|-!0--0-0-0-15-(15)-3-5-3-5---5-3-|-5-5-5-5-----/10-(10)-15-17-15-17-17-15--|
|-!0--0-0-0-15-(15)---------------|-5-5-5-5-7-7-/10-(10)-15-17-15-17-17-15--|
|
|                                                                     ~~
|  E. S S S  E  +S  S S S S S S S   S S S S S S   S  +E   S  S  S  S  E  S
|---------------------------------|-----------------------------------------|
|-!3--3---------------------------|-----------------------------------------|
|-!2--2---------------------------|-----------------------------------------|
|-!0--0-0-0-15-(15)---------3-----|-5-5-5-5-----/12-(12)-15-17-15-17-17-15--|
|-!0--0-0-0-15-(15)-3-5-3-5---5-3-|-5-5-5-5-----/10-(10)-15-17-15-17-17-15--|
|-!0--0-0-0-15-(15)---------------|-5-5-5-5-7-7-/10-(10)-15-17-15-17-17-15--|


                                                                       ~~
   E. S S S   E  +S  S S S S S S S   S S S S S S   S  +E   S  S  S  S  E  S
|----------------------------------|-----------------------------------------|
|-!3--3----------------------------|-----------------------------------------|
|-!2--2----------------------------|-----------------------------------------|
|-!0--0-0-0-/15-(15)---------3-----|-5-5-5-5-----/12-(12)-15-17-15-17-17-15--|
|-!0--0-0-0-/15-(15)-3-5-3-5---5-3-|-5-5-5-5-----/10-(10)-15-17-15-17-17-15--|
|-!0--0-0-0-/15-(15)---------------|-5-5-5-5-7-7-/10-(10)-15-17-15-17-17-15--|
|
|                                                                      ~~
|  E. S S S   E  +S  S S S S S S S   S S S S S S   S  +E   S  S  S  S  E  S
|----------------------------------|-----------------------------------------|
|-!3--3----------------------------|-----------------------------------------|
|-!2--2----------------------------|-----------------------------------------|
|-!0--0-0-0-/15-(15)---------3-----|-5-5-5-5-----/12-(12)-15-17-15-17-17-15--|
|-!0--0-0-0-/15-(15)-3-5-3-5---5-3-|-5-5-5-5-----/10-(10)-15-17-15-17-17-15--|
|-!0--0-0-0-/15-(15)---------------|-5-5-5-5-7-7-/10-(10)-15-17-15-17-17-15--|


                                   1.
                           To Coda
                                                                      ~~
   E. S S S  E  +S  S S S S S S S   S S S S S S   S  +E   S  S  S  S  E  S
|---------------------------------|------------------------------------------||
|-!3--3---------------------------|-----------------------------------------o||
|-!2--2---------------------------|------------------------------------------||
|-!0--0-0-0-15-(15)---------3-----|-5-5-5-5-----/12-(12)-15-17-15-17-17-15---||
|-!0--0-0-0-15-(15)-3-5-3-5---5-3-|-5-5-5-5-----/10-(10)-15-17-15-17-17-15--o||
|-!0--0-0-0-15-(15)---------------|-5-5-5-5-7-7-/10-(10)-15-17-15-17-17-15---||
|
|                                                                     ~~
|  E. S S S  E  +S  S S S S S S S   S S S S S S   S  +E   S  S  S  S  E  S
|---------------------------------|------------------------------------------||
|-!3--3---------------------------|-----------------------------------------o||
|-!2--2---------------------------|------------------------------------------||
|-!0--0-0-0-15-(15)---------3-----|-5-5-5-5-----/12-(12)-15-17-15-17-17-15---||
|-!0--0-0-0-15-(15)-3-5-3-5---5-3-|-5-5-5-5-----/10-(10)-15-17-15-17-17-15--o||
|-!0--0-0-0-15-(15)---------------|-5-5-5-5-7-7-/10-(10)-15-17-15-17-17-15---||


  2.
                                    ~~
  S S S S S S   S  +E   S  S  S  S  E  S
|----------------------------------------|
|----------------------------------------|
|----------------------------------------|
|-5-5-5-5-----/12-(12)-15-17-15-17-17-15-|
|-5-5-5-5-----/10-(10)-15-17-15-17-17-15-|
|-5-5-5-5-7-7-/10-(10)-15-17-15-17-17-15-|
|
|                                   ~~
| S S S S S S   S  +E   S  S  S  S  E  S
|----------------------------------------|
|----------------------------------------|
|----------------------------------------|
|-5-5-5-5-----/12-(12)-15-17-15-17-17-15-|
|-5-5-5-5-----/10-(10)-15-17-15-17-17-15-|
|-5-5-5-5-7-7-/10-(10)-15-17-15-17-17-15-|


 Interlude
 3/4
  W                         W
|-------------------------|--------------------------|
|-------------------------|--------------------------|
|-------------------------|--------------------------|
|-------------------------|--------------------------|
|-------------------------|--------------------------|
|-------------------------|--------------------------|
|
| S S S S E  S  S S  S  E   S S S S E  S  S S  S  E
|-------------------------|--------------------------|
|-------------------------|--------------------------|
|-2-2---2-2---------------|-2-2---2-2----------------|
|-0-0---0-0-12-12---12-12-|-0-0---0-0-12-12---12-12--|
|-0-0---0-0-10-10---10-10-|-0-0---0-0-10-10---10-10--|
|-0-0---0-0-10-10---10-10-|-0-0---0-0-10-10---10-10--|


   E    E    S  S  S  S  S  S  S  S
|-----------------------15----15----|
|-15---15---15-18-15-18----18----18-|
|-----------------------------------|
|-----------------------------------|
|-----------------------------------|
|-----------------------------------|
|
|  S S  S S  E     S  S  S  S  E
|-----------------------------------|
|-----------------------------------|
|--2-2----2--2----------------------|
|--0-0----0--0----12-12----12-12----|
|--0-0----0--0----10-10----10-10----|
|--0-0----0--0----10-10----10-10----|


 4/4
   +S   S  S  S  S  S  S  S  S  S  S  S  S  S  S  S
|---------------------15----15----15----------------|
|-(18)-18-17-18-17-18----18----18----18-17-18-17-18-|
|---------------------------------------------------|
|---------------------------------------------------|
|---------------------------------------------------|
|---------------------------------------------------|
|
|   S   S  S  S  E     S  S  S  S  S  S  S  S  S  S
|---------------------------------------------------|
|---------------------------------------------------|
|---2---2-----2--2----------------------------------|
|---0---0-----0--0----12-12----12-12-12--0--0-14-15-|
|---0---0-----0--0----10-10----10-10-10--0--0-14-15-|
|---0---0-----0--0----10-10----10-10-10--0--0-14-15-|


 3/4
   S  S  S  S  S  S  S  S  S  S  S  S
|-------17----17----15----15----15----|
|-17-18----15----15----18----18----18-|
|-------------------------------------|
|-------------------------------------|
|-------------------------------------|
|-------------------------------------|
|
|  S  S  S  S  E     S  S  S  S  E
|-------------------------------------|
|-------------------------------------|
|--2--2-----2--2----------------------|
|--0--0-----0--0----12-12----12-12----|
|--0--0-----0--0----10-10----10-10----|
|--0--0-----0--0----10-10----10-10----|


 4/4
   +S   S  S  S  S  S  S  S  S  S  S  S  S  S  S  S
|---------------------15----15----------------------||
|-(18)-18-17-18-17-18----18----18-17-18-17-15-17h18-||
|---------------------------------------------------||
|---------------------------------------------------||
|---------------------------------------------------||
|---------------------------------------------------||
|
|   S   S  S  S  E     S  S  S  S  S  S  S  S  S  S
|---------------------------------------------------||
|---------------------------------------------------||
|---2---2-----2--2----------------------------------||
|---0---0-----0--0----12-12----12-12-12--0--0-14-15-||
|---0---0-----0--0----10-10----10-10-10--0--0-14-15-||
|---0---0-----0--0----10-10----10-10-10--0--0-14-15-||


  S S  S  S S S  S  S S S  S  S S S  S   S
|------------------------------------------|
|------------------------------------------|
|------------------------------------------|
|-0-0-14-15-0-0-15-17-0-0-14-15-0-0-17\-15-|
|-0-0-14-15-0-0-15-17-0-0-14-15-0-0-17\-15-|
|-0-0-14-15-0-0-15-17-0-0-14-15-0-0-17\-15-|


  S S  S  S S S  S  S S S  S  S S S  S   S
|------------------------------------------|
|------------------------------------------|
|------------------------------------------|
|-0-0-14-15-0-0-15-17-0-0-14-15-0-0-17\-15-|
|-0-0-14-15-0-0-15-17-0-0-14-15-0-0-17\-15-|
|-0-0-14-15-0-0-15-17-0-0-14-15-0-0-17\-15-|


  S S  S  S S S  S  S S S  S  S S S  S   S
|------------------------------------------|
|------------------------------------------|
|------------------------------------------|
|-0-0-14-15-0-0-15-17-0-0-14-15-0-0-17\-15-|
|-0-0-14-15-0-0-15-17-0-0-14-15-0-0-17\-15-|
|-0-0-14-15-0-0-15-17-0-0-14-15-0-0-17\-15-|


  S S  S  S S S  S  S S S  S  S S S  S   S
|------------------------------------------|
|------------------------------------------|
|------------------------------------------|
|-0-0-14-15-0-0-15-17-0-0-14-15-0-0-17\-15-|
|-0-0-14-15-0-0-15-17-0-0-14-15-0-0-17\-15-|
|-0-0-14-15-0-0-15-17-0-0-14-15-0-0-17\-15-|


  S S  S  S S S  S  S S S  S  S S S  S   S
|------------------------------------------|
|------------------------------------------|
|------------------------------------------|
|-0-0-14-15-0-0-15-17-0-0-14-15-0-0-17\-15-|
|-0-0-14-15-0-0-15-17-0-0-14-15-0-0-17\-15-|
|-0-0-14-15-0-0-15-17-0-0-14-15-0-0-17\-15-|


  S S  S  S S S  S  S S S  S  S S S  S   S
|------------------------------------------|
|------------------------------------------|
|------------------------------------------|
|-0-0-14-15-0-0-15-17-0-0-14-15-0-0-17\-15-|
|-0-0-14-15-0-0-15-17-0-0-14-15-0-0-17\-15-|
|-0-0-14-15-0-0-15-17-0-0-14-15-0-0-17\-15-|


 3/4                       4/4
  S S S S E  S  S S  S  E   S S S S E  S  S S  S  E Q
|-------------------------|----------------------------|
|-------------------------|----------------------------|
|-2-2---2-2---------------|-2-2---2-2------------------|
|-0-0---0-0-12-12---12-12-|-0-0---0-0-12-12---12-12----|
|-0-0---0-0-10-10---10-10-|-0-0---0-0-10-10---10-10----|
|-0-0---0-0-10-10---10-10-|-0-0---0-0-10-10---10-10----|


 Chorus
   S  S  S  S  S  S  S  S  S  S  S S  S S  S S
|----------------------------------------------|
|-------10----10----------13----13-------------|
|-10-12----10----10-10-10----10----9-10-9-10-9-|
|----------------------------------------------|
|----------------------------------------------|
|----------------------------------------------|


   S  S  S  S  S  S S  S  S S  S S  S S  S S
|--------------------------------------------|
|-------10----10-----------------------------|
|-10-12----12----10-9-10-12-9-12-9-10-9-10-9-|
|--------------------------------------------|
|--------------------------------------------|
|--------------------------------------------|


   S  S  S  S  S  S  S  S  S  S  S S  S S  S S
|----------------------------------------------|
|-------10----10----------13----13-------------|
|-10-12----10----10-10-10----10----9-10-9-10-9-|
|----------------------------------------------|
|----------------------------------------------|
|----------------------------------------------|


   S  S  S  S  S  S S  S  S S  S S  S S  S S
|--------------------------------------------|
|-------10----10-----------------------------|
|-10-12----12----10-9-10-12-9-12-9-10-9-10-9-|
|--------------------------------------------|
|--------------------------------------------|
|--------------------------------------------|


   S  S  S  S  S  S  S  S  S  S  S S  S S  S S
|----------------------------------------------|
|-------10----10----------13----13-------------|
|-10-12----10----10-10-10----10----9-10-9-10-9-|
|----------------------------------------------|
|----------------------------------------------|
|----------------------------------------------|
|
| Gtr I
|  S  S  S  S  S  S  S  S  S  S  S S  S S  S S
|----------------------------------------------|
|----------------------------------------------|
|----------------------------------------------|
|--------------5----------------------5--------|
|-----5--8--5-----8--5--8--------8-5----8--5-8-|
|--0-----------------------5--5----------------|


   S  S  S  S  S  S S  S  S S  S S  S  S  S S
|---------------------------------------------|
|-------10----10------------------------------|
|-10-12----12----10-9-10-12-9-12-9-10--9-10-9-|
|---------------------------------------------|
|---------------------------------------------|
|---------------------------------------------|
|
|  S  S  S  S  S  S S  S  S S  S S  S  S  S S
|---------------------------------------------|
|---------------------------------------------|
|---------------------------------------------|
|---------------------------------------------|
|--------8----10--8----8----8-10-8-10-12-10-8-|
|--8--8-----8-------8----10-------------------|


   S  S  S  S  S  S  S  S  S  S  S S  S S  S S
|----------------------------------------------|
|-------10----10----------13----13-------------|
|-10-12----10----10-10-10----10----9-10-9-10-9-|
|----------------------------------------------|
|----------------------------------------------|
|----------------------------------------------|
|
|  S  S  S  S  S  S  S  S  S  S  S S  S S  S S
|----------------------------------------------|
|----------------------------------------------|
|----------------------------------------------|
|--------------5----------------------5--------|
|-----5--8--5-----8--5--8--------8-5----8--5-8-|
|--0-----------------------5--5----------------|


   S  S  S  S  S  S S  S  S S  S S  S S  S S
|--------------------------------------------|
|-------10----10-----------------------------|
|-10-12----12----10-9-10-12-9-12-9-10-9-10-9-|
|--------------------------------------------|
|--------------------------------------------|
|--------------------------------------------|
|
|  W
|--------------------------------------------|
|--------------------------------------------|
|--------------------------------------------|
|--------------------------------------------|
|--------------------------------------------|
|--------------------------------------------|


                 D.S. al Coda  &
                                                                 ~~
  S S S S E  S  S S  S  E Q    S S S S S S   E  +S   S  S  S  S  E  S
|----------------------------|----------------------------------------|
|----------------------------|----------------------------------------|
|-2-2---2-2------------------|----------------------------------------|
|-0-0---0-0-12-12---12-12----|-5-5-5-5-----/12-(12)-15-17-15-17-17-15-|
|-0-0---0-0-10-10---10-10----|-5-5-5-5-----/10-(10)-15-17-15-17-17-15-|
|-0-0---0-0-10-10---10-10----|-5-5-5-5-7-7-/10-(10)-15-17-15-17-17-15-|
|
|                                                                ~~
| S S S S E  S  S S  S  E Q    S S S S S S   E  +S   S  S  S  S  E  S
|----------------------------|----------------------------------------|
|----------------------------|----------------------------------------|
|-2-2---2-2------------------|----------------------------------------|
|-0-0---0-0-12-12---12-12----|-5-5-5-5-----/12-(12)-15-17-15-17-17-15-|
|-0-0---0-0-10-10---10-10----|-5-5-5-5-----/10-(10)-15-17-15-17-17-15-|
|-0-0---0-0-10-10---10-10----|-5-5-5-5-7-7-/10-(10)-15-17-15-17-17-15-|


      ~~       ~~       ~~
   S  E  S  S  E  S  S  E  S q
|-------------------------------*|
|-------------------------------*|
|-------------------------------*|
|-17-17-15-17-17-15-17-17-15-0--*|
|-17-17-15-17-17-15-17-17-15-0--*|
|-17-17-15-17-17-15-17-17-15-0--*|
|
|     ~~       ~~       ~~
|  S  E  S  S  E  S  S  E  S q
|-------------------------------*|
|-------------------------------*|
|-------------------------------*|
|-17-17-15-17-17-15-17-17-15-0--*|
|-17-17-15-17-17-15-17-17-15-0--*|
|-17-17-15-17-17-15-17-17-15-0--*|


Duration Legend
---------------
W - whole; H - half; Q - quarter; E - 8th; S - 16th; T - 32nd; X - 64th; a - acciaccatura
+ - note tied to previous; . - note dotted; .. - note double dotted
Uncapitalized letters represent notes that are staccato (1/2 duration)
Irregular groupings are notated above the duration line
Duration letters will always appear directly above the note/fret number it represents the
duration for.  Duration letters with no fret number below them represent rests.  Multi-
bar rests are notated in the form Wxn, where n is the number of bars to rest for.  Low
melody durations appear below the staff

Tablature Legend
----------------
 h   - hammer-on
 p   - pull-off
 b   - bend
 pb  - pre-bend
 r   - bend release (if no number after the r, then release immediately)
 /\  - slide into or out of (from/to "nowhere")
 s   - legato slide
 S   - shift slide
  - natural harmonic
[n]  - artificial harmonic
n(n) - tapped harmonic
 ~   - vibrato
 tr  - trill
 T   - tap
 TP  - trem. picking
 PM  - palm muting
\n/  - tremolo bar dip; n = amount to dip
 \n  - tremolo bar down
 n/  - tremolo bar up
/n\  - tremolo bar inverted dip
 =   - hold bend; also acts as connecting device for hammers/pulls
 <>  - volume swell (louder/softer)
 x   - on rhythm slash represents muted slash
 o   - on rhythm slash represents single note slash

Misc Legend
-----------
 |  - bar
||  - double bar
||o - repeat start
o|| - repeat end
*|  - double bar (ending)
 :  - bar (freetime)
 $  - Segno
 &  - Coda
Tempo markers -  = BPM(8/16=s8/s16), where s8 = swing 8ths, s16 = swing 16ths


***************************************************************************************
* Generated using Power Tab Editor by Brad Larsen - http://powertab.guitarnetwork.org *
***************************************************************************************
Tap to rate this tab
# A B C D E F G H I J K L M N O P Q R S T U V W X Y Z