Song name
# A B C D E F G H I J K L M N O P Q R S T U V W X Y Z

Nickelback - Next Contestant tab

Song: Next Contestant
Band: Nickelback
Album: All The Right Reasons (Track 7)
Tuning: Drop C (CGCFAC)
Tabber: Nick Gray
Email: ngray8725@yahoo.ca

Figured this out last night !!  I absolutley love this song of Nickelback's new album!
I think this should be a single !!!  Enjoy

Guitar 1 (flanger)(Palm Muted)

D |--------------------------------------------|
A |--------------------------------------------|
F |--------9---7---7-9-------9---7---7-9-------|
C |------9---9---9---------9---9---9-----------|
G |----7-----------------7---------------------|
C |--------------------------------------------|
     

guitar 2
D |-----------------------------------------|
A |---10/12-\8~---10~-10/12-\8~--8/10-10~---|
F |-------------9---------------------------|
C |-----------------------------------------|
G |-----------------------------------------|
C |-----------------------------------------|


pre-chorus, “Here comes the next contestant…” 
D |------------------------|
A |------------------------|
F |------------------------|
C |---5-----7--------------|
G |---5-----7--------------|
C |---5-----7--------------|


chorus, “Is that your hand….”
D |-------------------------|-----------------------------------|
A |-------------------------|-----------------------------------|
F |-------------------------|-----------------------------------|
C |--0h2h5-2--5-5--0-0--7-7-|--0h2h5-2--5-5--0-0-0-0-7-7-7-7----|
G |--0h2h5-2--5-5--0-0--7-7-|--0h2h5-2--5-5--0-0-0-0-7-7-7-7----|
C |--0h2h5-2--5-5--0-0--7-7-|--0h2h5-2--5-5--0-0-0-0-7-7-7-7----|

D |-------------------------------------------------|
A |-------------------------------------------------|
F |-------------------------------------------------|   x 2
C |---2-2-2-2--5-5-5-5--0-0-0-0--7777-/12121212-----|
G |---2-2-2-2--5-5-5-5--0-0-0-0--7777-/12121212-----|
C |---2-2-2-2--5-5-5-5--0-0-0-0--7777-/12121212-----|	

 There goes the next contestant
D |---------------------|
A |---------------------|
F |---------------------|
C |---5-5---7-7---------|
G |---5-5---7-7---------|
C |---5-5---7-7---------|

bridge
D |-----------------------------------------|
A |-----------------------------------------|
F |-----------------------------------------|
C |-----------------------------------------|
G |-----------------------------------------|
C |--0h2h5p2-0h2h5p2—0h2h5p2-0h2h5-7r-5r----|


D |-------------------------------------------------|
A |-------------------------------------------------|
F |-------------------------------------------------|
C |-------------------------------------------------|
G |--------------------------------5----------------|
C |--0h2h5p2-0h2h5p2—0h2h5p2-0h2h5---7-5-2--7-5-2-0-|
				  (    Palm Muted  )
				    
D |-----------------------------------------|
A |-----------------------------------------|
F |-----------------------------------------|
C |-----------------------------------------|
G |-----------------------------------------|
C |--0h2h5p2-0h2h5p2—0h2h5p2-0h2h5-7r-5r----|

D |-----------------------------------------------|
A |-----------------------------------------------|
D |-----------------------------------------------|
C |-----------------------------------------------|
G |--------------------------------5--------------|
C |--0h2h5p2-0h2h5p2—0h2h5p2-0h2h5---7-5-2--7-5-0-|
			          (  Palm Muted  )
				     

D |--------------------------------------------------|
A |--------------------------------------------------|  
F |--------------------------------------------------|    
C |--------------------------------------------------|  
G |--0-2--------0-2-5-7--0-2-----5-------------------|
C |--0-2-/5-2r--0-2-5-7--0-2-/5----7-5-2--7-5-0(~)---|
	       (Palm Muted)    	(Palm Muted)
	                 
					  
     

outro

D |-------------------------|-----------------------------------|
A |-------------------------|-----------------------------------|
F |-------------------------|-----------------------------------|
C |--0h2h5-2--5-5--0-0--7-7-|--0h2h5-2--5-5--0-0-0-0-7-7-7-7----|
G |--0h2h5-2--5-5--0-0--7-7-|--0h2h5-2--5-5--0-0-0-0-7-7-7-7----|
C |--0h2h5-2--5-5--0-0--7-7-|--0h2h5-2--5-5--0-0-0-0-7-7-7-7----|

D |------------------------------------------------|
A |------------------------------------------------|
F |------------------------------------------------|   x 2
C |---2-2-2-2--5-5-5-5--0-0-0-0--7777-12121212-----|
G |---2-2-2-2--5-5-5-5--0-0-0-0--7777-12121212-----|
C |---2-2-2-2--5-5-5-5--0-0-0-0--7777-12121212-----|	

D |------------------------------------------------|
A |------------------------------------------------|
F |------------------------------------------------|   x 2
C |---2-2-2-2--5-5-5-5--0-0-0-0--7777-12121212-----|
G |---2-2-2-2--5-5-5-5--0-0-0-0--7777-12121212-----|
C |---2-2-2-2--5-5-5-5--0-0-0-0--7777-12121212-----|	


“There goes the next contestant…”
D |---------------------|
A |---------------------|
F |---------------------|
C |---5-5---7-7---------|
G |---5-5---7-7---------|
C |---5-5---7-7---------|

Tap to rate this tab
 
# A B C D E F G H I J K L M N O P Q R S T U V W X Y Z