Song name
# A B C D E F G H I J K L M N O P Q R S T U V W X Y Z

Nickelback - Saturday Night Alright tab

This is a great song covered by a CANADIAN(!) band.

Intro (0:00-0:05)

e|---------------------------------------|
b|-8-8-7-x-8-8-7-x-8-8-7-x-6-6-5-x-6-6-5-|
g|-7-7-7-x-7-7-7-x-7-7-7-x-5-5-5-x-5-5-5-|
d|---------------------------------------|
a|---------------------------------------|
D|---------------------------------------|

Verse (0:06-0:33) Three times then at about 0:30 stay on the G5 chord.

 G5                       F5                      D5       
|-----------------------------------------------------------------------|
|-----------------------------------------------------------------------|
|-----------------------------------------------------------------------|
|-5-5-5-5-5-5-5-5-5-5-5-5-3-3-3-3-3-3-3-3-3-3-3-3-0-0-0-0-0-0-0-0-0-0-0-|
|-5-5-5-5-5-5-5-5-5-5-5-5-3-3-3-3-3-3-3-3-3-3-3-3-0-0-0-0-0-0-0-0-0-0-0-|
|-5-5-5-5-5-5-5-5-5-5-5-5-3-3-3-3-3-3-3-3-3-3-3-3-0-0-0-0-0-0-0-0-0-0-0-|

Chorus part 1 (0:34-0:58) repeat 4 times then stay on the G5 chord.
 G5                     D5
|-----------------------------------------------|
|-----------------------------------------------|
|-----------------------------------------------|
|-5-5-5-5-5-5-5-5-5-5-5-0-0-0-0-0-0-0-0-0-0-0-0-|
|-5-5-5-5-5-5-5-5-5-5-5-0-0-0-0-0-0-0-0-0-0-0-0-|
|-5-5-5-5-5-5-5-5-5-5-5-0-0-0-0-0-0-0-0-0-0-0-0-|

Part 2 (0:59-1:04)

  D5 C5 B5 A5 N.C.
|-----------------------------|
|-----------------------------|
|-----------------------------|
|-12-10-9-7-7-x-x-x-x-x-x-x-x-|
|-12-10-9-7-7-x-x-x-x-x-x-x-x-|
|-12-10-9-7-7-x-x-x-x-x-x-x-x-|

Repeat verse from 1:05-1:29.

Repeat the chorus from 1:30-1:55.

Chours part 2 (1:55-2:02)
  D5 C5 B5 A5 N.C.
|-----------------------------|
|-----------------------------|
|-----------------------------|
|-12-10-9-7-7-x-x-x-x-x-x-x-x-|
|-12-10-9-7-7-x-x-x-x-x-x-x-x-|
|-12-10-9-7-7-x-x-x-x-x-x-x-x-|

Bridge (2:03-2:15)
                                                        
|------------------------------------------------------------------------|
|-8-8-7-x-8-8-7-x-8-8-7-x-6-6-5-x-6-6-5-x-6-6-5-x-13-13-12-x-13-13-12----|
|-7-7-7-x-7-7-7-x-7-7-7-x-5-5-5-x-5-5-5-x-5-5-5-x-12-12-12-x-12-12-12----|
|---------------------------------------------------^--^------^---^------|
|-------------------------------------------------------------times 2----|
|------------------------------------------------------------------------|

Bridge plays in the solo (2:16-2:28).

Then the chours plays (2:29-2:54)

Reprise (2:55-3:31) is the same as the verses.

Outro
 D5
|--------|
|--------|
|--------|
|-0-/-\--|
|-0-/-\--|
|-0-/-\--|

Have fun playing this,

                          Sheldon and Eric W.
Tap to rate this tab
 
# A B C D E F G H I J K L M N O P Q R S T U V W X Y Z