Song name
# A B C D E F G H I J K L M N O P Q R S T U V W X Y Z

Nickelback - In Front Of Me tab

Guitar does this:
E---|-------------------------------------------------------------------|
B---|-------------------------------------------------------------------|
G---|-------------------------------------------------------------------|
D---|--------9--------9--------------9--------9--------------9----------|
A---|-----7--------7--------7-----7--------7--------7-----7--------7----|
E---|--9--------9--------9-----7--------7--------7-----6--------6-------|


                               While bass does this:  Bridge:
E------------------------------------|--------------|-------------------|
B------------------------------------|--------------|-------------------|
G------------------------------------|--------------|-------------------|
D---9--------------9--------9--------|--------------|--4--7--4--7--4----|
A---------7-----7--------7--------7--|--------------|--4--7--4--7--4----|
E------6-----5--------5--------5-----|--9--7--6--5--|--2--5--2--5--2----|


                   Chorus:         Bridge 2:                  Solo:
E--------------|--0--2--5--8---|--------------------------|------------|
B--------------|--0--2--5--8---|--------------------------|------------|
G--------------|--1--3--6--9---|--5--7--5--7--5--7--5--7--|--9--9------|
D---7--4--7----|--2--4--7--10--|--5--7--5--7--5--7--5--7--|------------|
A---7--4--7----|--2--4--7--10--|--3--5--3--5--3--5--3--5--|------------|
E---5--2--5----|--0--2--5--8---|--------------------------|------------|

E----------------------------|------------------------------------------|
B---9--------10p9--10--9-----|-----12-----10--9-------------------------|
G------9--9---------------9--|--9------9---------9--11~~~--9--11~~~-----|
D----------------------------|------------------------------------------|
A----------------------------|------------------------------------------|
E----------------------------|------------------------------------------|

E-|-----------------------------------12-------------------------|
B-|--------9--------12--10--9--10---------12--10--9--------------|
G-|--9--9-----9--9-----------------9-----------------9--9~~~-----|
D-|--------------------------------------------------------------|
A-|--------------------------------------------------------------|
E-|--------------------------------------------------------------|

E-----------------|-----------------------------------------------|
B-----------------|--------9-----------10-----10-----12-----10----|
G--9--9--7--7--9--|--9--9-----9--9--9------9------9--9---9--------|
D-----------------|-----------------------------------------------|
A-----------------|-----------------------------------------------|
E-----------------|-----------------------------------------------|


                      Scratchy Funk Thing:   Tap Thingie:
E-----------------------|-------------------|----------------------------|
B---9-------------------|-------------------|--9h10h12--9h10h12--9-------|
G------9--97--7--9--9--|--7h9--------------|-----------------------------|
D-----------------------|--0-0--------------|----------------------------|
A-----------------------|-------------------|----------------------------|
E-----------------------|-------------------|----------------------------|

E--------------------------|
B---h10h12--9--10--7-------|
G---------------------7/9--|
D--------------------------|
A--------------------------|
E--------------------------|
Tap to rate this tab
# A B C D E F G H I J K L M N O P Q R S T U V W X Y Z