Song name
# A B C D E F G H I J K L M N O P Q R S T U V W X Y Z

Nickelback - Not Leavin Yet tab

Help us improve GuitareTab! Take a short survey!
^ = hammer on or pull off
pm = palm mute
s = slide


                 pm--------------------------------------------------|
C# ------------------------------------------x-x-x-------------------|
G# ------------------------------------------x-x-x-------------------|
E  ------------------------------------------x-x-x-------------------|
B  22-0-22-0-22-0---------------22-0-22-0-22-x-x-x--22-0-22-0-22-2-2-|
F  22-0-22-0-22-0---------------22-0-22-0-22-x-x-x--22-0-22-0-22-2-2-|
B  22-0-22-0-22-0-2-3-2^3^2-0---22-0-22-0-22-x-x-x--22-0-22-0-22-2-2-|

--------------x-x-x------------------------------------x-x-x-------------|
--------------x-x-x------------------------------------x-x-x-------------|
--------------x-x-x------------------------------------x-x-x-------------|
222-0-22-0-22-x-x-x--55-0-55-0-55-4s5s4-0-22-0-22-0-22-x-x-x-------------|
222-0-22-0-22-x-x-x--55-0-55-0-55-4s5s4-0-22-0-22-0-22-x-x-x-------------|
222-0-22-0-22-x-x-x--55-0-55-0-55-4s5s4-0-22-0-22-0-22-x-x-x-------------|
Related for Not Leavin Yet tab