Song name
# A B C D E F G H I J K L M N O P Q R S T U V W X Y Z

Nickelback - Someone Youre With tab

“Someone That You’re With”
By: Nickelback


Tuning: Drop D (DADGBe)

------
Verse: (very lightly distorted)
--------------------------------------------------------------------------|
e|------------------------------------------------------------------------|
B|------------------------------------------------------------------------|
G|------------------------------------------------------------------------|
D|------------------------------------------------------------------------|
A|---3h5------3h5------3h5------3h5------3h5------3h5------3h5------------|
D|-------0-0------0-0------0-0------0-0------5-5------5-5------5-5--------|

e|----------------------------------------------------------------------|
B|----------------------------------------------------------------------|
G|----------------------------------------------------------------------|
D|----------------------------------------------------------------------|
A|---3h5------3h5-------3h5-------3h5-------3h5-------3h5------3h5------|
D|-------5-5-------3-3-------3-3-------5-5-------5-5------0-0------0-0--|

e|----------------------------------------------------------------------|
B|----------------------------------------------------------------------|
G|----------------------------------------------------------------------|
D|----------------------------------------------------------------------|
A|---3h5------3h5-------------------------------------------------------|
D|-------0-0------0-0---------------------------------------------------|


---------
Prechorus: (distorted)
--------------------------------------------------------------------------|
e|------------------------------------------------------------------------|
B|------------------------------------------------------------------------|
G|---3-3--3-3-3--3-3-3--3-3-3---------------------------------------------|
D|---3-3--3-3-3--3-3-3--3-3-3--5-5-5--5-5-5--5-5-5--5-5-5--3-3-3--3-3-----|
A|---1-1--1-1-1--1-1-1--1-1-1--5-5-5--5-5-5--5-5-5--5-5-5--3-3-3--3-3-----|
D|-----------------------------5-5-5--5-5-5--5-5-5--5-5-5--3-3-3--3-3-----|

e|----------------------------------------------------------------------|
B|----------------------------------------------------------------------|
G|-----------------5-5-5--5-5-5-----------------------------------------|
D|-3-3-3-3--3-3-3--5-5-5--5-5-5---5-5-5-5-5-5-5-5-5---------------------|
A|-3-3-3-3--3-3-3--3-3-3--3-3-3---5-5-5-5-5-5-5-5-5---------------------|
D|-3-3-3-3--3-3-3-----------------5-5-5-5-5-5-5-5-5---------------------|



-------
Chorus: (distorted)
-------                   -see note #1 at bottom--------------------------|
e|------------------------------------------------------------------------|
B|------------------------------------------------------------------------|
G|-------------------------------------5-55-55----------------------------|
D|---0-00-000-000--00-5-55-555-555--55-5-55-55-5-55-55-0-00-000-000-00----|
A|---0-00-000-000--00-5-55-555-555--55-3-33-33-5-55-55-0-00-000-000-00----|
D|---0-00-000-000--00-5-55-555-555--55---------5-55-55-0-00-000-000-00----|

------------
Post Chorus: (Distorted)
--------------------------------------------------------------------------|
e|------------------------------------------------------------------------|
B|------------------------------------------------------------------------|
G|------------------------------------------------------------------------|
D|---3-3-3-3-3-3-3-3--5-5-5-5-5-5-5-5-------------------------------------|
A|---3-3-3-3-3-3-3-3--5-5-5-5-5-5-5-5--3h5-----3h5-----3h5-----3h5--------|
D|---3-3-3-3-3-3-3-3--5-5-5-5-5-5-5-5------0-0-----0-0-----0-0-----0-0----|

------------
2nd Post Chorus: (Distorted)
------------                -see note #1 at bottom------------------------|
e|------------------------------------------------------------------------|
B|------------------------------------------------------------------------|
G|---3-33-333-5-55-555-------------------3-33-333-5-55-555--7-7--7-7-7----|
D|---3-33-333-5-55-555-3-33-333-5-55-555-3-33-333-5-55-555--7-7--7-7-7----|
A|---1-11-111-3-33-333-3-33-333-5-55-555-1-11-111-3-33-333--5-5--5-5-5----|
D|---------------------3-33-333-5-55-555----------------------------------|

e|----------------------------------------------------------------------|
B|----------------------------------------------------------------------|
G|---7-7-7--7-7-7-------------------------------------------------------|
D|---7-7-7--7-7-7-------------------------------------------------------|
A|---5-5-5--5-5-5-------------------------------------------------------|
D|----------------------------------------------------------------------|

------
Bridge (Acoustic)
----------------------------------------|                    strum and let ring
e|--------------------------------------|
B|--------------------------------------|
G|---7---------------5---------------7--|
D|---7-------5-------5-------5-------7--|
A|---5-------5-------3-------5-------5--|
D|-----------5---------------5----------|

-----
Outro
-----            -see note # 1 at bottom----------------------------------|
e|------------------------------------------------------------------------|
B|------------------------------------------------------------------------|
G|---3-33-333-5-55-555-------------------3-33-333-5-55-555----------------|
D|---3-33-333-5-55-555-3-33-333-5-55-555-3-33-333-5-55-555-3-33-333-------|
A|---1-11-111-3-33-333-3-33-333-5-55-555-1-11-111-3-33-333-3-33-333-------|
D|---------------------3-33-333-5-55-555-------------------3-33-333-------|

e|----------------------------------------------------------------------|
B|----------------------------------------------------------------------|
G|------------3-33-333-5-55-555-7---------------------------------------|
D|---5-55-555-3-33-333-5-55-555-7---------------------------------------|
A|---5-55-555-1-11-111-3-33-333-5---------------------------------------|
D|---5-55-555-----------------------------------------------------------|


VERSE 2X
PRECHORUS 1X
CHORUS 2X
POST CHORUS 2X
2ND POST CHORUS 1X
VERSE 2X
PRECHORUS 1X
CHORUS 2X
POST CHORUS 2X
2ND POST CHORUS 1X
BRIDGE 1X
CHORUS 2X
POST CHORUS 2X
OUTRO 1X


-NOTE #1- this is the strum pattern I use but it can be modified.


This is my first tab in positive its 100% correct! Please Rate!
Tap to rate this tab
# A B C D E F G H I J K L M N O P Q R S T U V W X Y Z