Song name
# A B C D E F G H I J K L M N O P Q R S T U V W X Y Z

Nickelback - Too Bad Live tab

                              NickelBack
                                Too Bad
Tabbed by big_d                  LIVE
Email greeneyes9285@cebridge.net

Tuning drop d

INTRO
E-------------------------------------------------|
B-------------------------------------------------|
G-------------------------------------------------|
D---5-5-5-5-5-5-5-5-5-5-5-5-5-5-5-5-5-5-5-5-5-5---|
A----3-3-3-3-3-3-3-3-3-3-3-3-3-3-3-3-3-3-3-3-3-3--|
D-------------------------------------------------|

VERSE
E-------------------------------------------------|
B-------------------------------------------------|
G-------------------------------------------------|
D-5-5-5-5-5-5-8-8-8-8-8-8-10-10-10-10-10-10-------|
A--3-3-3-3-3-3-6-6-6-6-6-6--8--8--8--8--8--8------|
D-------------------------------------------------|

CHORUS
E--------------------------------------------------|
B--------------------------------------------------|
G--------------------------------------------------|
D-6-6-6-6-6-6-6-6-1-1-1-1-1-1-1-1-3-3-1-3-3-1-1-1--|
A-6-6-6-6-6-6-6-6-1-1-1-1-1-1-1-1-3-3-1-3-3-1-1-1--|
D-6-6-6-6-6-6-6-6-1-1-1-1-1-1-1-1-3-3-1-3-3-1-1-1--|

THIS IS UR OUTRO VERSE
E--------------------------------------------------|
B--------------------------------------------------|
G--------------------------------------------------|
D-5-5-5-5-5-5-8-8-8-8-8-8-10-10-10-10-10-10--------|
A--3-3-3-3-3-3-6-6-6-6-6-6--8--8--8--8--8--8-------|
D--------------------------------------------------|

PLAY CHORUS TWO MORE TIMES AND FINISH ON
E-------------|
B-------------|
G-------------|
D---3---------|LET THIS RING
A---3---------|
D---3---------|
Tap to rate this tab
# A B C D E F G H I J K L M N O P Q R S T U V W X Y Z