Song name
# A B C D E F G H I J K L M N O P Q R S T U V W X Y Z

Nickelback - Someone That Your With tab

Someone That Your With
By: Nickleback

Not entirely sure if this is 100% but I found that this sounded pretty good.
If you wanna report any mistakes send me an Email, igotdafunk2@aim.com
Thanks!

h= Hammer-on

Intro
E|-----------------------------------------------------------|
B|-----------------------------------------------------------|
G|-----------------------------------------------------------|
D|-----------------------------------------------------------| 
A|-3h5-----3h5-----3h5-----3h5-----3h5-----3h5-----3h5-------|
D|-----0-0-----0-0-----0-0-----0-0-----5-5-----5-5-----5-5---|


E|-----------------------------------------------------------|
B|-----------------------------------------------------------|
G|-----------------------------------------------------------|
D|-----------------------------------------------------------|
A|-3h5-----3h5-----3h5-----3h5-----3h5-----3h5-----3h5-------|
D|-----5-5-----3-3-----3-3-----5-5-----5-5----0-0-----0-0----|

E|---------------------------------------|
B|---------------------------------------|
G|--------------------------------------*|
D|--------------------------------------*|
A|-3h5-----3h5---------------------------|
D|-----0-0-----0-0-----------------------|
 
Pre-Chorus  
E|-----------------------------------------------------------|
B|-----------------------------------------------------------|
G|-----------------------------------------------------------|
D|-8-8--8-8-8--8-8-8--8-8-8--5-5-5--5-5-5--5-5-5--5-5-5------| 
A|-8-8--8-8-8--8-8-8--8-8-8--5-5-5--5-5-5--5-5-5--5-5-5------|
D|-8-8--8-8-8--8-8-8--8-8-8--5-5-5--5-5-5--5-5-5--5-5-5------|
                                        
E|-----------------------------------------------------------|
B|-----------------------------------------------------------|
G|-----------------------------------------------------------|
D|-3-3-3--3-3-3--3-3-3--3-3-3--10-10-10--10-10-10------------| 
A|-3-3-3--3-3-3--3-3-3--3-3-3--10-10-10--10-10-10------------|
D|-3-3-3--3-3-3--3-3-3--3-3-3--10-10-10--10-10-10------------|

E|---------------------------------------|
B|---------------------------------------|
G|---------------------------------------|
D|-3-3-3-3-3-3-3-3-3---------------------| 
A|-3-3-3-3-3-3-3-3-3---------------------|
D|-3-3-3-3-3-3-3-3-3---------------------|

Chorus
E|-----------------------------------------------------------|
B|-----------------------------------------------------------|
G|----------------------------------------------------------*|
D|-0------5------10-----5-----0-----------------------------*| 
A|-0-x16--5-x16--10-x8--5-x8--0-x16--------------------------|
D|-0------5------10-----5-----0------------------------------|

E|-----------------------------------------------------------|
B|-----------------------------------------------------------|
G|----------------------------------------------------------*|
D|-3-----5--------------------------------------------------*| 
A|-3-x8--5-x8--3h5-----3h5-----3h5-----3h5-------------------|
D|-3-----5---------0-0-----0-0-----0-0-----0-0---------------|

E|-----------------------------------------------------------|
B|-----------------------------------------------------------|
G|-----------------------------------------------------------|
D|-8-----10-----3-----5-----8-----10-10-------------12-12----| 
A|-8-x8--10-x8--3-x8--5-x8--8-x8--10-10-(Let Ring)--12-12----|
D|-8-----10-----3-----5-----8-----10-10-------------12-12----|

E|---------------------|
B|---------------------|
G|---------------------|
D|-12-12-12--12-12-12--| 
A|-12-12-12--12-12-12--|
D|-12-12-12--12-12-12--|

Tap to rate this tab
# A B C D E F G H I J K L M N O P Q R S T U V W X Y Z