Guitaretab - guitar tabs
Song name
# A B C D E F G H I J K L M N O P Q R S T U V W X Y Z

Nickelback - Window Shopper tab

-------------------------------------------------------------------------------
                         WINDOW SHOPPER - Nickelback
-------------------------------------------------------------------------------

Tabbed by: brian_s
Email: branimir.sremec@kc.t-com.hr


INTRO:
e----------------------------------|
B----------------------------------|
G---3-3----------------------------|  4x
D---3-3--5---x-x-x--x-x-x--x-x-x---|
A---1-1--5---x-x-x--x-x-x--x-x-x---|
E--------3---x-x-x--x-x-x--x-x-x---|


VERSE:
e----------------------------------------------------|
B----------------------------------------------------|
G---3-3-------5--5-5----------3-3-------------5--5---|  8x
D---3-3--5----5--5-5--5-------3-3--5----3--3--5--5---|
A---1-1--5----3--3-3--5-------1-1--5----3--3--3--3---|
E--------3------------3------------3----1--1---------|

e----------------------------|
B----------------------------|
G---5--5--5--5--5--5--5--5---|
D---5--5--5--5--5--5--5--5---|
A---3--3--3--3--3--3--3--3---|
E----------------------------|

e-------------------------|----------------------------|
B-------------------------|----------------------------|
G---3-3----------5-5------|---5--5--5--5--5--5--5--5---|  2x
D---3-3--5----5--5-5--5---|---5--5--5--5--5--5--5--5---|
A---1-1--5----5--3-3--5---|---3--3--3--3--3--3--3--3---|
E--------3----3-------3---|----------------------------|

e------------|
B------------|
G--------5---|
D---3----5---|
A---3----3---|
E---1--------|


VERSE 2:
e----------------------------------------------------|
B----------------------------------------------------|
G---3-3-------5--5-5----------3-3-------------5--5---|  4x
D---3-3--5----5--5-5--5-------3-3--5----3--3--5--5---|
A---1-1--5----3--3-3--5-------1-1--5----3--3--3--3---|
E--------3------------3------------3----1--1---------|

e----------------------------|
B----------------------------|
G---5--5--5--5--5--5--5--5---|
D---5--5--5--5--5--5--5--5---|
A---3--3--3--3--3--3--3--3---|
E----------------------------|
[ Tab from: http://www.guitaretab.com/n/nickelback/94463.html ]
e-------------------------|----------------------------|
B-------------------------|----------------------------|
G---3-3----------5-5------|---5--5--5--5--5--5--5--5---|  2x
D---3-3--5----5--5-5--5---|---5--5--5--5--5--5--5--5---|
A---1-1--5----5--3-3--5---|---3--3--3--3--3--3--3--3---|
E--------3----3-------3---|----------------------------|

F5 C5 riff

e----------------------------------------------------|
B----------------------------------------------------|
G---3-3-------5--5-5----------3-3-------------5--5---|  5x
D---3-3--5----5--5-5--5-------3-3--5----3--3--5--5---|
A---1-1--5----3--3-3--5-------1-1--5----3--3--3--3---|
E--------3------------3------------3----1--1---------|


CHORUS:
e----------------------------------------------------------|
B----------------------------------------------------------|
G---3-3-3-3-3-3-3-3-3-3-3-3-3--5-5-5-5-5-5-5-5-5-5-5-5-5---| ---------
D---3-3-3-3-3-3-3-3-3-3-3-3-3--5-5-5-5-5-5-5-5-5-5-5-5-5---|          |
A---1-1-1-1-1-1-1-1-1-1-1-1-1--3-3-3-3-3-3-3-3-3-3-3-3-3---|          |
E----------------------------------------------------------|          |
                                                                      |  2x
e-----------------------------------------------------------------|   |
B-----------------------------------------------------------------|   |
G---8-8-8-8-8-8-8-8-8-8-8-8-8--10-10-10-10-10-10-10-10-10-10-10---|   |
D---8-8-8-8-8-8-8-8-8-8-8-8-8--10-10-10-10-10-10-10-10-10-10-10---| --
A---6-6-6-6-6-6-6-6-6-6-6-6-6--8--8--8-8--8--8--8--8-8--8-8----|
E-----------------------------------------------------------------|


Intro riff 4x


e----------------------------------------------------|
B----------------------------------------------------|
G---3-3-------5--5-5----------3-3-------------5--5---|  2x
D---3-3--5----5--5-5--5-------3-3--5----3--3--5--5---|
A---1-1--5----3--3-3--5-------1-1--5----3--3--3--3---|
E--------3------------3------------3----1--1---------|


CHORUS:
Chorus riff 2x


e----------------------------------------------------|
B----------------------------------------------------|
G---3-3-------5--5-5----------3-3-------------5--5---|  2x
D---3-3--5----5--5-5--5-------3-3--5----3--3--5--5---|
A---1-1--5----3--3-3--5-------1-1--5----3--3--3--3---|
E--------3------------3------------3----1--1---------|




X  =  mute note
Related for Window Shopper tab