Guitaretab - guitar tabs
Song name
# A B C D E F G H I J K L M N O P Q R S T U V W X Y Z

Nicki Minaj - Starships tab

starships - nicki minaj
tab by keven pogrzeba


verse
  h  q eq h  q eq h  q eq h  q eq
e-3--3-33---------3--3-33-3--4-44-|
b-4--4-44-3--4-44-4--4-44-3--4-44-|
g-3--3-33-4--5-55-5--5-55-4--5-55-|
d---------5--6-66-5--5-55-5--6-66-|
a-----------------3--3-33-5--6-66-|
e-------------------------3--4-44-|

[ Tab from: http://www.guitaretab.com/n/nicki-minaj/313060.html ]
chorus
  q q q q q h  eq q q q e q. h eee
e-3-3-3-6-6-6^863-3-3-3-----------|
b-4-4-4-----------3-3-3-3-3-4--346|
g-3-3-3-----------3-3-3-----------|
d---------------------------------|
a---------------------------------|
e---------------------------------|


syncopated breakdown      higher than a...
 q q q q q q q q q q q q q q q q
e--------------------------------|
b--------------------------------|
g--------------------------------|
d-4-4-4-4|4-4-4-4|4-4-4-4|    x\\|
a-2-2-2-2|2-2-2-2|2-2-2-2|    x\\|
e---------------------------------


short bridge after second verse
  eeeeeee
e--------|
b-9986834|
g--------|
d--------|
a--------|
e--------|
Related for Starships tab
Starships chords by Nicki Minaj