Song name
# A B C D E F G H I J K L M N O P Q R S T U V W X Y Z

Nicki Minaj - Starships tab

 e-------------------------------------------------------|
 a-------------------------------------------------------|
 d-7-7-7---7-x-7---2-2----------------4-4-4---4-x-4------|
 g-7-7-7---7-x-7---2-2--5-x-x-5-x-5---4-4-4---4-x-4------|
 b-5-5-5---5-x-5---0-0--5-x-x-5-x-5---2-2-2---2-x-2------|
 E----------------------3-x-x-3-x-3----------------------|

 e-------------------------------------------------------|
 a-------------------------------------------------------|
 d-------------------------------------------------------| x2
 g-4-4--5-x-x-5-x-5--------------------------------------|
 b-4-4--5-x-x-5-x-5--------------------------------------|
 E-2-2--3-x-x-3-x-3--------------------------------------|
Tap to rate this tab
 
# A B C D E F G H I J K L M N O P Q R S T U V W X Y Z