Song name
# A B C D E F G H I J K L M N O P Q R S T U V W X Y Z

Nicki Minaj - Starships tab

 Starships - Nicki Minaj  (intro)
 Tabbed by: Aaron L             Enjoy  :)


 E-10-10-10---10-x-10---5-5--3-x-x-3-x-3---7-7-7---7-x-7-|
 B-10-10-10---10-x-10---5-5--3-x-x-3-x-3---7-7-7---7-x-7-|
 G-7--7--7----7--x-7----2-2--0-x-x-0-x-0---4-4-4---4-x-4-|
 D-------------------------------------------------------|
 A-------------------------------------------------------|
 E-------------------------------------------------------|

 E-------3-x-x-3-x-3-------------------------------------|
 B-7-7---3-x-x-3-x-3-------------------------------------|
 G-6-6---0-x-x-0-x-0-------------------------------------|
 D-4-4---------------------------------------------------|
 A-------------------------------------------------------|
 E-------------------------------------------------------|
Tap to rate this tab
# A B C D E F G H I J K L M N O P Q R S T U V W X Y Z