Song name
# A B C D E F G H I J K L M N O P Q R S T U V W X Y Z

Nicki Minaj - Pound The Alarm tab

E----------------------------------------------------------------------|
B----10---------11-11-11-11-11-11-10------10---------------------------|
G------10--7-5-----------------------12-10---10--7-5-------------------|
D----------------------------------------------------------------------|
A----------------------------------------------------------------------|
E----------------------------------------------------------------------|

(Cont'd)
E-----------------------------------------------------------------------|
B---11-11-11-11-11-11-10------------------------------------------------|
G-----------------------12-10-10-10-7-10-10--10-10-7-10-10--10-7-10-7/3-|
D-----------------------------------------------------------------------|
A-----------------------------------------------------------------------|
E-----------------------------------------------------------------------|
Tap to rate this tab
# A B C D E F G H I J K L M N O P Q R S T U V W X Y Z