Guitaretab - guitar tabs
Song name
# A B C D E F G H I J K L M N O P Q R S T U V W X Y Z

Nicky Astria - Dunia Cinta tab

#----------------------------------PLEASE NOTE--------------------------------#
#This file is the author's own work and represents their interpretation of the#
#song. You may only use this file for private study, scholarship, or research.#
#-----------------------------------------------------------------------------#

From: Haqqo Sabahtulloh (haqqo_az_zahra@hotmail.com)
Subject: Nicky Astria/Dunia Cinta.tab

Dunia Cinta-Nicky Astria

Intro: F#m Bm C#sus F#m
       Dsus A C#sus F#m

------------------------------------------------------------------------|
---------10-9-10br---------10-9-10br----9br-9---------------------------|
-----------------------------------------------11-11-10-10--------------|
--10/11-------------10/11-----------------------------------11br--9-11--|
------------------------------------------------------------------------|
------------------------------------------------------------------------|

----------------------------------------------------------------5-----------|
----------------------------------------------------------5/7br---7\5br-(7)-|
--7p6p4-----4--7br-7p6h7-7br---6br---4p2h4-4-4br--4br-----------------------|
---------7--------------------------------------------4br-------------------|
----------------------------------------------------------------------------|
----------------------------------------------------------------------------|

Verse 1

F#m                 Bm
Dingin malam menebarkan sunyi
C#                 F#m
Nyanyikan perihnya hati ini
          Dsus    Bmsus
Mengenang dirimu dalam angan
C#sus                      F#m  Bm C# F#m
Yang pernah mewarnai...hidupku

-------------------------------------------------------------------|
---------10-9-10br-----10br--10-9/10-9--------------------9rb------|
----------------------------------------11-11-10-10------------11--|
--10/11-----------------------------------------------11-----------|
-------------------------------------------------------------------|
-------------------------------------------------------------------|

Verse 2

F#m             Bm
Kubiarkan semua terjadi
C#sus              F#m
Ku nikmati khayalan ini
        Dsus          Bmsus
Ku kian tenggelam dan terlena
C#sus                   F#m
Kau bawa diriku terbang tinggi

Reff
A            Bm    B/Esus        A    D  E
Indah dunia cinta, Panah Api asmara
A             Bm
Indah bisikan kata
       Dsus               C#sus
Hangat pelukan dalam khayalan
[ Tab from: http://www.guitaretab.com/n/nicky-astria/86304.html ]
     F#m        Bm    C#sus                  F#m
Berakhir...berakhir, semuanya kini tlah berakhir
      F#m        Bm    C#sus                F#m
kau pergi...kau pergi, goreskan luka dihati ini


Solo.
Bm   E   A   F#m

---12-12-12^^----------12-------------------------|
----------------13/14------14--12-10--12br-12^^---|
--------------------------------------------------|
--------------------------------------------------|
--------------------------------------------------|
--------------------------------------------------|

----------------------------------------------------|
------12--9-----------------------------------------|
---11-------11-9----------------9--11br--11p9-11^^--|
-----------------11-9br------11---------------------|
------------------------9/11------------------------|
----------------------------------------------------|

Bm G#sus C#sus Dsus Bm  C#sus

---------14br--------14-17^-16br-16br---16-----------------|
--6/12--------12--15-----------------------16-16---17-17br-|
--5/11-----------------------------------------------------|
-----------------------------------------------------------|
-----------------------------------------------------------|
-----------------------------------------------------------|

------------16--17/19^--19-16--17^--------16-17-19br--17-19br---|
--------17-------------------------17/19------------------------|
--17/18---------------------------------------------------------|
----------------------------------------------------------------|
----------------------------------------------------------------|
----------------------------------------------------------------|

--16-19br--17-19br--17-19br---20br--20br-----|
---------------------------------------------|
---------------------------------------------|
---------------------------------------------|
---------------------------------------------|
---------------------------------------------|


Reff
A            Bm    B/Esus        A    D  E
Indah dunia cinta, Panah Api asmara
A             Bm
Indah bisikan kata
       Dsus               C#sus
Hangat pelukan dalam khayalan

     F#m        Bm    C#sus                  F#m
Berakhir...berakhir, semuanya kini tlah berakhir
      F#m        Bm    C#sus                F#m
kau pergi...kau pergi, goreskan luka dihati ini


    F#m        Bm    C#sus                  F#m
Berakhir...berakhir, semuanya kini tlah berakhir
      F#m        Bm    C#sus                F#m
kau pergi...kau pergi, goreskan luka dihati ini
Related for Dunia Cinta tab
×
Dunia Cinta