Song name
# A B C D E F G H I J K L M N O P Q R S T U V W X Y Z

Nicky Astria - Misteri Cinta tab

#----------------------------------PLEASE NOTE--------------------------------#
#This file is the author's own work and represents their interpretation of the#
#song. You may only use this file for private study, scholarship, or research.#
#-----------------------------------------------------------------------------#


From: Haqqo Sabahtulloh (haqqo_az_zahra@hotmail.com)
Subject: Nicky Astria/Misteri Cinta.tab
Tablature : Havit Hizboel(haqqo_az_zahra@hotmail.com)

Misteri cinta - Nicky Astria
Accoustic Guitar

---12--14--12-------------5--5-7-----------------------------|
---12--12--12---15-----7-(7)------8---5--7-8--5--7-8--10-----|
---12-----------14---7----------------5-------5--------------|
---------------------0---------------------------------------|
-------------------------------------------------------------|
-------------------------------------------------------------|

----------7----------------7--------|
------7-------7--------7------------|
----7---7---7---7----7---7----------|
--9----------------9----------------|
------------------------------------|
------------------------------------|

Intro Em C

Em            D
Kala cinta berlabuh didermaga
C                 Em
Kutelusuri karang terjal berliku
Em               D
Tak perduli pasirnya melukai
C                Bm     Fill Bass A G B
Aku pasrah dalam rangkulnya

Em             D
Bila cinta berlumur dusta
C                   Em
Aku tenggelam dalam keruhnya
Em            D
Sebab dia memberi surya
C                  Bm  Fill Bass A G B
Walau dia perih menyalipku


Reff

G          D
Pedihnya kemesraan yang dalam
Em          C          G
Adalah luka karena tikamnya
G            D
Tetes darah diatas luka cinta
Em   C      Bm Fill Bass A G F#/D Em    C B
Adalah suka rela diatas getarnya


Em             D
Aku menjadi bulan atas riaknya
C                   Em
Aku menjadi bintang diatas gelombang
Em            D
Aku jadi segala yang diinginkannya
C                  Bm  Fill Bass A G B
Untuk didamparkan di pantai ini


String synth solo (arranged for guitar)
(Em Bm C G Am C D)
(Em Bm C G Am C B)
(D B)

------------------------------------12-14-15~-(15p14p12)--12-14-15-17--14~~---|
--------------12~~^-----12--13-15~~-------------------------------------------|
-----11-12-14--------14-------------------------------------------------------|
--14--------------------------------------------------------------------------|
------------------------------------------------------------------------------|
------------------------------------------------------------------------------|

--15~-15p14p12-------15~-15p14p12---------------------------------------------|
----------------12~---------------12~------------12-13-15--12h13p12\10--------|
---------------------------------------14-13-14-------------------------12~---|
------------------------------------------------------------------------------|
------------------------------------------------------------------------------|
------------------------------------------------------------------------------|

--------------------12-14-15~~--17~--14~~-----19-15--------14~~---------------|
-----------12-13-15---------------------------------15------------------------|
--14-13-14---------------------------------------------16---------------------|
------------------------------------------------------------------------------|
------------------------------------------------------------------------------|
------------------------------------------------------------------------------|

Reff

G          D
Pedihnya kemesraan yang dalam
Em          C          G
Adalah luka karena tikamnya
G            D
Tetes darah diatas luka cinta
Em   C      Bm Fill Bass A G F#/D Em    C B
Adalah suka rela diatas getarnya


Em             D
Aku menjadi bulan atas riaknya
C                   Em
Aku menjadi bintang diatas gelombang
Em            D
Aku jadi segala yang diinginkannya
C                  Bm  Fill Bass A G B    Em D C
Untuk didamparkan di pantai ini
          Em  D  C
di pantai ini.............. 6 X
Tap to rate this tab
 
# A B C D E F G H I J K L M N O P Q R S T U V W X Y Z