Song name
# A B C D E F G H I J K L M N O P Q R S T U V W X Y Z

Nico Touches The Walls - Broken Youth tab

-------------------------------------------------------------------------------
			     Broken Youth - Nico Touches The Walls
-------------------------------------------------------------------------------
Tabbed by: DMN
Email: ihopeyouchokeagain@hotmail.com

Tuning: Standard

e|---------------------------------------------------------------------------|
B|---------------------------------------------------------------------------|
G|-3-3-3-3-3-3/10-10-10/11-11-11---3-3-3-3-3-3/13-13-13/15-15-15-------------|
D|-x-x-x-x-x-x----x--x-----x--x----x-x-x-x-x-x----x--x-----x--x--------------|
A|-1-1-1-1-1-1/8--8--8-/9--9--9----1-1-1-1-1-1/11-11-11/13-13-13-------------|
E|---------------------------------------------------------------------------|

e|---------------------------------------------------------------------------|
B|---------------------------------------------------------------------------|
G|-18-18-18-16-16-16-16-16-16-16-16-15-15-15-15-15/13------------------------|
D|-x--x--x--x--x--x--x--x--x--x--x--x--x--x--x--x----------------------------|
A|-16-16-16-14-14-14-14-14-14-14 14-13-13-13-13-13/11------------------------|
E|---------------------------------------------------------------------------|


http://www.senha.jp/nico/
Tap to rate this tab
 
# A B C D E F G H I J K L M N O P Q R S T U V W X Y Z