Nico Touches The Walls - Diver tab

Naruto Shippuuden Opening 8 TABS - Nico Touches The Wall
---------------5------------------------------|
---555---------------555557-------------------|
-----------7------7--------------7------------|  x2
----------------------------------------------|
----------------------------------------------|
----------------------------------------------|

Power chords
 B A G   X2

Open chords
D A G  X3

---------10---9--------------------------|
-/10--------------10---------------------|
--------------------------9--------------|
----------------------------12--11/------|
-----------------------------------------|
-----------------------------------------|

power chords
D G A

------------------------------------------------------------------------|
-----10----10------10-----10------------9--------------12---------------|
--9------9------12-----12----------------9----------11------------------|
-------------------------------------12-12----9-12----------------------|
------------------------------------------------------------------------|
------------------------------------------------------------------------|

-----------------------------------------------------------------------|
-----------------------------------------------------------------------|
--12--11---------------------------------------------------------------|
-------------12--------------------------------------------------------|
-------------------14---12---------------------------------------------|
--------------------------------12--10---------------------------------|

then power chords
D C# D E
and at the end some variation of open chord A

B A G A
B A G A F# E D E
B A G A
B A G A F# E D E
at the end
E  F# G
Tap to rate this tab
 
# A B C D E F G H I J K L M N O P Q R S T U V W X Y Z