Song name
# A B C D E F G H I J K L M N O P Q R S T U V W X Y Z

Nico Touches The Walls - Diver tab

-------------------------------------------------------------------------------
			     Diver Ė NICO Touches The Wall
-------------------------------------------------------------------------------
Tabbed by: MR. J. Rooke
Email: jonahrockson@hotmail.com

Tuning: Standard

Intro lead:
e|----------5------------------------------------5------------------------|
B|-5---5------------5-5---5---7---------5---5-----------5-5----7/8\7------|
G|---7---7--------7-----7---7----7--------7---7-------7-----7---------7---|
D|----------------------------------------------------------------------7-|
A|------------------------------------------------------------------------|
E|------------------------------------------------------------------------|
								(slide with your pinky)
e|----------5------------------------------------5-----------------------|
B|-5---5-------------5-5---5---7--------5---5------------5-5---5---7-----|
G|---7---7---------7-----7---7----7-------7---7--------7-----7---7----7--|
D|-----------------------------------------------------------------------|
A|-----------------------------------------------------------------------|
E|-----------------------------------------------------------------------|

Rhythm:

e|------------------------------------------------------------------|
B|------------------------------------------------------------------|
G|------------------------------------------------------------------|
D|-9-9-9-9-9-9-9-9-7-7-7-7-7-7-7-7-5-5-5-5-5-5-5-5-5-5-5-5-5-5-5-5--|
A|-9-9-9-9-9-9-9-9-7-7-7-7-7-7-7-7-5-5-5-5-5-5-5-5-5-5-5-5-5-5-5-5--|
E|-7-7-7-7-7-7-7-7-5-5-5-5-5-5-5-5-3-3-3-3-3-3-3-3-3-3-3-3-3-3-3-3--|

e|------------------------------------------------------------------|
B|------------------------------------------------------------------|
G|------------------------------------------------------------------|
D|-9-9-9-9-9-9-9-9-7-7-7-7-7-7-7-7-5-5-5-5-5-5-5-5-5-5-5-5-5-5-5-5--|
A|-9-9-9-9-9-9-9-9-7-7-7-7-7-7-7-7-5-5-5-5-5-5-5-5-5-5-5-5-5-5-5-5--|
E|-7-7-7-7-7-7-7-7-5-5-5-5-5-5-5-5-3-3-3-3-3-3-3-3-3-3-3-3-3-3-3-3--|

Verse, play with distortion:
Rhythm:
e|---------------------------------------------3---3-3---3---3---3-3---|donít be 
B|----------3---3-3-----------2---2-2----------3---3-3---3---3---3-3---|too true to
G|----------4---4-4-----------2---2-2----------0---0-0---0---0---0-0---|the 
D|--4-4-4-4-4---4-4---2-2-2-2-2---2-2--0-0-0-0-0---0-0-0-0-0-0---0-0---|fullness
A|--2-2-2-2-2---2-2---0-0-0-0-0---0-0--2-2-2-2-2---2-2-2-2-2-2---2-2---| of these G 
E|-------------------------------------3-3-3-3-3---3-3-3-3-3-3---3-3---|chords
PM|--------|         |-------|        |-------|       |-| |-|
e|---------------------------------------------3---3-3---3---3---3-3---|donít be 
B|----------3-3-3-3-----------2-2-2-2----------3---3-3---3---3---3-3---|too true to
G|----------4-4-4-4-----------2-2-2-2----------0---0-0---0---0---0-0---|the 
D|--4-4-4-4-4-4-4-4---2-2-2-2-2-2-2-2--0-0-0-0-0---0-0-0-0-0-0---0-0---|fullness
A|--2-2-2-2-2-2-2-2---0-0-0-0-0-0-0-0--2-2-2-2-2---2-2-2-2-2-2---2-2---| of these G 
E|-------------------------------------3-3-3-3-3---3-3-3-3-3-3---3-3---|chords
PM|--------|         |-------|        |-------|       |-| |-|

Lead then comes in (clean):   
e|-2-------0-------3----------3-------------2---------------3--3-3-3-3-3--|
B|-3-------2-------3-------------3---3------3---------------3--3-3-3-3-3--|
G|-2-------2-------0---------------0--------2-------2-------0--0-0-0-0-0--|
D|-0-------2-------0------------------------0-------2-------0--0-0-0-0-0--|
A|---------0-------2--------------------------------0-------2--2-2-2-2-2--|
E|-----------------3----------------------------------------3--3-3-3-3-3--|

Rhythm:
e|-------------------------------------------------------------------|
B|--------------------3----------------------------------------------|
G|-4-------2-------0-----0---0--------------4-------2-------0---0-0--|
D|-4-------2-------0-------0----------------4-------2-------0---0-0--|
A|-2-------0-------2------------------------2-------0-------2---2-2--|
E|-----------------3----------------------------------------3---3-3--|

Lead (Switch to overdrive):
e|--9b10bd9--------------|
B|----------10-----------|
G|-------------9---------|
D|---------------12-11---|
A|-----------------------|
E|-----------------------|

Rhythm:
e|------------|
B|------------|
G|-0-0-0-0-0--|
D|-0-0-0-0-0--|
A|-2-2-2-2-2--|
E|-3-3-3-3-3--|

Pre-Chorus Lead:    
      
e|--------------------------|--15-------15-------15-15-|
B|--15-------15-------15-15-|--12-12-12-12-12-12-12-12-|
G|--12-12-12-12-12-12-12-12-|--12-12-12-12-12-12-12-12-|
D|--12-12-12-12-12-12-12-12-|--------------------------|
A|--------------------------|--------------------------|
E|--------------------------|--------------------------|

      
e|----------------------------|--14-------14-------14-14-|
B|--17-------17-------17-17---|--11-11-11-11-11-11-11-11-|
G|--14-14-14-14-14-14-14-14---|--11-11-11-11-11-11-11-11-|
D|--14-14-14-14-14-14-14-14---|--------------------------|
A|----------------------------|--------------------------|
E|----------------------------|--------------------------| 
    
e|--17-------15-------14-14---|--15-------14-------12-12-|
B|--14-14-14-14-14-14-14-14---|--12-12-12-12-12-12-12-12-|
G|--14-14-14-14-14-14-14-14---|--12-12-12-12-12-12-12-12-|
D|----------------------------|--------------------------|
A|----------------------------|--------------------------|
E|----------------------------|--------------------------|
   
e|--------------------------|--------------------------|
B|--14-14-14-15-15-15-15-15-|--17-17-17-17-17-17-17-17-|
G|--14-14-14-14-14-14-14-14-|--14-14-14-14-14-14-14-14-|
D|--------------------------|--------------------------|
A|--------------------------|--------------------------|
E|--------------------------|--------------------------|
    
e|---------------------|-----------------------|
B|-----10-----10-------|------10------10-------|
G|--9------9-----------|--12------12-----------|
D|---------------------|-----------------------|
A|---------------------|-----------------------|
E|---------------------|-----------------------|

e|--------------------|----------------------|
B|--------------------|-------------12-------|
G|---------9--11------|---------11-----------|
D|--9--12-------------|--9--12---------------|
A|--------------------|----------------------|
E|--------------------|----------------------|
   
e|-------------------------------|
B|-------------------------------|
G|--11b12bd11--------------------|
D|------------14-12--------------|
A|-----------------14-12---------|
E|------------------------14-12--|
   
e|------------------------------|--------------------------|
B|------------------------------|--------------------------|
G|------------------------------|--6--6--6--7--7--7--9--9--|
D|--12--x--x--12--x--x--12--12--|--------------------------|
A|------x--x------x--x----------|--4--4--4--5--5--5--7--7--|
E|--10--x--x--10--x--x--10--10--|--------------------------|

E|---------------------------|
B|---------------------------|
G|-------9------9\-----------|
D|--/11-----11---------------|
A|---------------------------|
E|---------------------------|

Iím not sure what the Rhythm plays during the pre-chorus, Iíll add it later.

 (Epic) Chorus:
Lead (ALL downstrokes):
e|-------------------------------------------------------------------------------------|
B|-------------------------------------------------------------------------------------|
G|--7-7-7-7-7-7-7-7--9-9-9-9-9-9-9-9--11-11-11-11-11-11-11-11--14-14-14-14-14-14-14-14-|
D|-------------------------------------------------------------------------------------|
A|--5-5-5-5-5-5-5-5--7-7-7-7-7-7-7-7---9--9--9--9--9--9--9--9--12-12-12-12-12-12-12-12-|
E|-------------------------------------------------------------------------------------|

e|------------------------------------------------------------------------|
B|-xx-15-x-14/15-x-15--xx15-x-14/15-x-19--xx-15-x--1919-1717-141414151515-|
G|-xx----x-------x-----xx---x-------x-----xx----x-------------------------|
D|-xx-12-x-11/12-x-12--xx12-x-11/12-x-16--xx-12-x--1616-1414-111111121212-|
A|------------------------------------------------------------------------|
E|------------------------------------------------------------------------|

e|-------------------------------------------------------------------------------------|
B|-------------------------------------------------------------------------------------|
G|--7-7-7-7-7-7-7-7--9-9-9-9-9-9-9-9--11-11-11-11-11-11-11-11--14-14-14-14-14-14-14-14-|
D|-------------------------------------------------------------------------------------|
A|--5-5-5-5-5-5-5-5--7-7-7-7-7-7-7-7---9--9--9--9--9--9--9--9--12-12-12-12-12-12-12-12-|
E|-------------------------------------------------------------------------------------|

e|-----------------------------------------------------------------------|
B|-xx-15-x-14/15-x-15--xx15-x-14/15-x-19--xx-15-x-1919-1717-141414151515-|
G|-xx----x-------x-----xx---x-------x-----xx----x------------------------|
D|-xx-12-x-11/12-x-12--xx12-x-11/12-x-16--xx-12-x-1616-1414-111111121212-|
A|-----------------------------------------------------------------------|
E|-----------------------------------------------------------------------|

Rhythm:

e|---------------------------------------------------------------------------|
B|---------------------------------------------------------------------------|
G|--4-4-4-4-4-4-4-4--2-2-2-2-2-2-2-2-2--0-0-0-0-0-0-0-0-0-0-0-0-0-0-0-0------|
D|--4-4-4-4-4-4-4-4--2-2-2-2-2-2-2-2-2--0-0-0-0-0-0-0-0-0-0-0-0-0-0-0-0------|
A|--2-2-2-2-2-2-2-2--0-0-0-0-0-0-0-0-0--2-2-2-2-2-2-2-2-2-2-2-2-2-2-2-2------|
E|--------------------------------------3-3-3-3-3-3-3-3-3-3-3-3-3-3-3-3------|
Not too sure if he plays that open G string in the G chord, play it how you want.
e|---------------------------------------------------------------------------|
B|---------------------------------------------------------------------------|
G|--4-4-4-4-4-4-4-4--2-2-2-2-2-2-2-2-2--0-0-0-0-0-0-0-0-0-0-0-0-0-0-0-0------|
D|--4-4-4-4-4-4-4-4--2-2-2-2-2-2-2-2-2--0-0-0-0-0-0-0-0-0-0-0-0-0-0-0-0------|
A|--2-2-2-2-2-2-2-2--0-0-0-0-0-0-0-0-0--2-2-2-2-2-2-2-2-2-2-2-2-2-2-2-2------|
E|--------------------------------------3-3-3-3-3-3-3-3-3-3-3-3-3-3-3-3------|


Intro again:
Lead:
e|----------5------------------------------------5------------------------|
B|-5---5------------5-5---5---7---------5---5-----------5-5----7/8\7------|
G|---7---7--------7-----7---7----7--------7---7-------7-----7---------7---|
D|----------------------------------------------------------------------7-|
A|------------------------------------------------------------------------|
E|------------------------------------------------------------------------|
								(slide with your pinky)
e|----------5------------------------------------5----------------------|
B|-5---5-------------5-5---5---7--------5---5------------5-5---5---7----|
G|---7---7---------7-----7---7----7-------7---7--------7-----7---7---7--|
D|----------------------------------------------------------------------|
A|----------------------------------------------------------------------|
E|----------------------------------------------------------------------|

Rhythm:

e|------------------------------------------------------------------|
B|------------------------------------------------------------------|
G|------------------------------------------------------------------|
D|-9-9-9-9-9-9-9-9-7-7-7-7-7-7-7-7-5-5-5-5-5-5-5-5-5-5-5-5-5-5-5-5--|
A|-9-9-9-9-9-9-9-9-7-7-7-7-7-7-7-7-5-5-5-5-5-5-5-5-5-5-5-5-5-5-5-5--|
E|-7-7-7-7-7-7-7-7-5-5-5-5-5-5-5-5-3-3-3-3-3-3-3-3-3-3-3-3-3-3-3-3--|

e|------------------------------------------------------------------|
B|------------------------------------------------------------------|
G|------------------------------------------------------------------|
D|-9-9-9-9-9-9-9-9-7-7-7-7-7-7-7-7-5-5-5-5-5-5-5-5-5-5-5-5-5-5-5-5--|
A|-9-9-9-9-9-9-9-9-7-7-7-7-7-7-7-7-5-5-5-5-5-5-5-5-5-5-5-5-5-5-5-5--|
E|-7-7-7-7-7-7-7-7-5-5-5-5-5-5-5-5-3-3-3-3-3-3-3-3-3-3-3-3-3-3-3-3--|

Verse 2:
Rhythm:
e|--------------------------------------------------------------------|
B|--------------------------------------------------------------------|
G|--------------------------------------------------------------------|
D|-4-4-4-4-4-4-4-4--2-2-2-2-2-2-2-2--0-0-0-0-0-0-0-0-0-0-0-0-0-0-0-0--|
A|-2-2-2-2-2-2-2-2--0-0-0-0-0-0-0-0--2-2-2-2-2-2-2-2-2-2-2-2-2-2-2-2--|
E|-----------------------------------3-3-3-3-3-3-3-3-3-3-3-3-3-3-3-3--|
PM|-----------------------------------------------------------------|

e|--------------------------------------------------------------------|
B|--------------------------------------------------------------------|
G|--------------------------------------------------------------------|
D|-4-4-4-4-4-4-4-4--2-2-2-2-2-2-2-2--0-0-0-0-0-0-0-0-0-0-0-0-0-0-0-0--|
A|-2-2-2-2-2-2-2-2--0-0-0-0-0-0-0-0--2-2-2-2-2-2-2-2-2-2-2-2-2-2-2-2--|
E|-----------------------------------3-3-3-3-3-3-3-3-3-3-3-3-3-3-3-3--|
PM|-----------------------------------------------------------------|

Rhythm:
e|-------------------------------------------------------------------|
B|--------------------3----------------------------------------------|
G|-4-------2-------0-----0---0--------------4-------2-------0---0-0--|
D|-4-------2-------0-------0----------------4-------2-------0---0-0--|
A|-2-------0-------2------------------------2-------0-------2---2-2--|
E|-----------------3----------------------------------------3---3-3--|


e|------------|
B|------------|
G|-0-0-0-0-0--|
D|-0-0-0-0-0--|
A|-2-2-2-2-2--|
E|-3-3-3-3-3--|

e|---------------------------------------------------------------------|
B|---------------------------------------------------------------------|
G|-2-2-2-2-2-2-2-2--0-0-0-0-0-0-0-0------------------------------------|
D|-2-2-2-2-2-2-2-2--0-0-0-0-0-0-0-0--2-2-2-2-2-2-2-2-2-2-2-2-2-2-2-2---|
A|-0-0-0-0-0-0-0-0--2-2-2-2-2-2-2-2--2-2-2-2-2-2-2-2-2-2-2-2-2-2-2-2---|
E|------------------3-3-3-3-3-3-3-3--0-0-0-0-0-0-0-0-0-0-0-0-0-0-0-0---|

e|---------------------------------------------------------------------|
B|---------------------------------------------------------------------|
G|-2-2-2-2-2-2-2-2--0-0-0-0-0-0-0-0------------------------------------|
D|-2-2-2-2-2-2-2-2--0-0-0-0-0-0-0-0--2-2-2-2-2-2-2-2-2-2-2-2-2-2-2-2---|
A|-0-0-0-0-0-0-0-0--2-2-2-2-2-2-2-2--2-2-2-2-2-2-2-2-2-2-2-2-2-2-2-2---|
E|------------------3-3-3-3-3-3-3-3--0-0-0-0-0-0-0-0-0-0-0-0-0-0-0-0---|

e|---------------------------------------------------------------------|
B|---------------------------------------------------------------------|
G|-2-2-2-2-2-2-2-2--0-0-0-0-0-0-0-0------------------------------------|
D|-2-2-2-2-2-2-2-2--0-0-0-0-0-0-0-0--2-2-2-2-2-2-2-2-2-2-2-2-2-2-2-2---|
A|-0-0-0-0-0-0-0-0--2-2-2-2-2-2-2-2--2-2-2-2-2-2-2-2-2-2-2-2-2-2-2-2---|
E|------------------3-3-3-3-3-3-3-3--0-0-0-0-0-0-0-0-0-0-0-0-0-0-0-0---|

e|---------------------------------------------------------------------|
B|---------------------------------------------------------------------|
G|-2-2-2-2-2-2-2-2--0-0-0-0-0-0-0-0------------------------------------|
D|-2-2-2-2-2-2-2-2--0-0-0-0-0-0-0-0--2-2-2-2-2-2-2-2-2-2-2-2-2-2-2-2---|
A|-0-0-0-0-0-0-0-0--2-2-2-2-2-2-2-2--2-2-2-2-2-2-2-2-2-2-2-2-2-2-2-2---|
E|------------------3-3-3-3-3-3-3-3--0-0-0-0-0-0-0-0-0-0-0-0-0-0-0-0---|


Lead: 
e|---------------------------------------------------------------------------|
B|-7-7-7-7-7-7-7-7--5-5-5-5-5-5-5-5--8-8-8-8-8-8-8-8-8-8-8-8-8-8-8-8---------|
G|-7-7-7-7-7-7-7-7--7-7-7-7-7-7-7-7--7-7-7-7-7-7-7-7-7-7-7-7-7-7-7-7---------|
D|---------------------------------------------------------------------------|
A|---------------------------------------------------------------------------|
E|---------------------------------------------------------------------------|
PM|-----------------------------------------------------------------|

e|---------------------------------------------------------------------------|
B|-7-7-7-7-7-7-7-7--5-5-5-5-5-5-5-5--8-8-8-8-8-8-8-8-8-8-8-8-8-8-8-8---------|
G|-7-7-7-7-7-7-7-7--7-7-7-7-7-7-7-7--7-7-7-7-7-7-7-7-7-7-7-7-7-7-7-7---------|
D|---------------------------------------------------------------------------|
A|---------------------------------------------------------------------------|
E|---------------------------------------------------------------------------|
PM|-----------------------------------------------------------------|

e|-----------------------------------------------------------------|
B|-7-----7-----7---5-----5-----5---8-----8-----8---8-----8-----8---|
G|-7-----7-----7---7-----7-----7---7-----7-----7---7-----7-----7---|
D|-5-5-5-5-5-5-5-5-5-5-5-5-5-5-5-5-5-5-5-5-5-5-5-5-5-5-5-5-5-5-5-5-|
A|-----------------------------------------------------------------|
E|-----------------------------------------------------------------|
PM  |--|  |--|  |-|  |--|  |--| |-|  |--|  |--| |-| |--|  |--|  |-|

e|-------------------------------------------------|
B|-7-----7-----7---5-----5-----5----------------10-|
G|-7-----7-----7---7-----7-----7--------------9----|
D|-5-5-5-5-5-5-5-5-5-5-5-5-5-5-5-5ó7/9-9-9-9-------|
A|-------------------------------------------------|
E|-------------------------------------------------|
PM  |--|  |--|  |-|  |--|  |--| |-|

e|--9b10bd9--------------|
B|----------10-----------|
G|-------------9---------|
D|---------------12-11---|
A|-----------------------|
E|-----------------------|

e|-----------17---------------17----------------17-----------------17-------|
B|--15----------------15---------------14------------------18---------------|
G|------14--------14-----14-------14-------14--------14--------17-----17----|
D|--------------------------------------------------------------------------|
A|--------------------------------------------------------------------------|
E|--------------------------------------------------------------------------|

e|-----------17---------------17----------------17-----17------15----14---------|
B|--15----------------15---------------14------------------------------------17-|
G|------14--------14-----14-------14--------14-----14-------14-----14----14-----|
D|------------------------------------------------------------------------------|
A|------------------------------------------------------------------------------|
E|------------------------------------------------------------------------------|
Iíve tried to rearrange it as best I could ^^ but youíll have to play along with 
the song to get perfect timing.

Pre-Solo Lead:
e|---------------------|-----------------------|
B|-----10-----10-------|------10------10-------|
G|--9------9-----------|--12------12-----------|
D|---------------------|-----------------------|
A|---------------------|-----------------------|
E|---------------------|-----------------------|

e|--------------------|----------------------|
B|--------------------|-------------12-------|
G|---------9--11------|---------11-----------|
D|--9--12-------------|--9--12---------------|
A|--------------------|----------------------|
E|--------------------|----------------------|

e|--------------------------------------------------------------------|
B|--------------------------------------------------------------------|
G|-/7-7-7-7-7-7-7-7-/7-7-7-7-7-7-7-7----/6--/7--/9--------------------|
D|--------------------------------------------------------------------|
A|-/5-5-5-5-5-5-5-5-/5-5-5-5-5-5-5-5----/4--/5--/7--\\\\\\\\\\\\\\\\--|
E|--------------------------------------------------\\\\\\\\\\\\\\\\--|
                                                      (pickscrape)

Solo:
e|-----------------12~-------------------------------------|
B|------10~------------------------------------------------|
G|-7/9~-------9-------------6sb---6~~~---------------------|
D|---------------------------------------------------------|
A|---------------------------------------5//9--12ó9\\55~~~-|
E|---------------------------------------------------------|

e|----------------------------------------------------------------4h5-5///17br--------|
B|----------------------------------------------------------5/7-7--------------17-15--|
G|---------------------7~~--------7ó9b---7h9-7~~-----6/7-7----------------------------|
D|--------------7h9-9--------7h9------------------------------------------------------|
A|-------5/7-9------------------------------------------------------------------------|
E|-5h7-7------------------------------------------------------------------------------|
I have a few variations of this part, this one seems best.

e|--------------------------------------------|
B|--9-9-9-11-11-11-7-7---17-17-17-17-17-17\---|
G|------------------------- ------------------|
D|--6-6-6--8--8--8-4-4---14-14-14-14-14-14\---|
A|--------------------------------------------|
E|--------------------------------------------|

e|-------------------------------------------|
B|--12-12-12-14-14-14-9-9---22--2222222222\--|
G|-------------------------------------------|
D|---9--9--9-11-11-11-6-6---19--1919191919\--|
A|-------------------------------------------|
E|-------------------------------------------|

e|---------------------------------------------|
B|--/5---5-----8bubd--------555-777-8888101010-|
G|-----7---7----------7------------------------|
D|---------------------------------------------|
A|---------------------------------------------|
E|---------------------------------------------|

e|-12p10------14p10------12p10------14p10------12p10----14p10------------------------|
B|-------1010-------1010-------1010-------1010-------10-------10---------------------|
G|-----------------------------------------------------------------------------------|
D|-----------------------------------------------------------------------------------|
A|---------------------------------------------------------------\\\\\\\\------------|
E|------------------------------------------------------------------------////////---|
                                     This isnít a pick-scrape; slide using your finger.
Rhythm:

e|---------------------------------------------------------------------------|
B|---------------------------------------------------------------------------|
G|--4-4-4-4-4-4-4-4--2-2-2-2-2-2-2-2-2--0-0-0-0-0-0-0-0-0-0-0-0-0-0-0-0------|
D|--4-4-4-4-4-4-4-4--2-2-2-2-2-2-2-2-2--0-0-0-0-0-0-0-0-0-0-0-0-0-0-0-0------|
A|--2-2-2-2-2-2-2-2--0-0-0-0-0-0-0-0-0--2-2-2-2-2-2-2-2-2-2-2-2-2-2-2-2------|
E|--------------------------------------3-3-3-3-3-3-3-3-3-3-3-3-3-3-3-3------|
Not too sure if he plays that open G string in the G chord, play it how you want.
e|---------------------------------------------------------------------------|
B|---------------------------------------------------------------------------|
G|--4-4-4-4-4-4-4-4--2-2-2-2-2-2-2-2-2--0-0-0-0-0-0-0-0-0-0-0-0-0-0-0-0------|
D|--4-4-4-4-4-4-4-4--2-2-2-2-2-2-2-2-2--0-0-0-0-0-0-0-0-0-0-0-0-0-0-0-0------|
A|--2-2-2-2-2-2-2-2--0-0-0-0-0-0-0-0-0--2-2-2-2-2-2-2-2-2-2-2-2-2-2-2-2------|
E|--------------------------------------3-3-3-3-3-3-3-3-3-3-3-3-3-3-3-3------|

e|---------------------------------------------------------------------------|
B|---------------------------------------------------------------------------|
G|--4-4-4-4-4-4-4-4--2-2-2-2-2-2-2-2-2--0-0-0-0-0-0-0-0-0-0-0-0-0-0-0-0------|
D|--4-4-4-4-4-4-4-4--2-2-2-2-2-2-2-2-2--0-0-0-0-0-0-0-0-0-0-0-0-0-0-0-0------|
A|--2-2-2-2-2-2-2-2--0-0-0-0-0-0-0-0-0--2-2-2-2-2-2-2-2-2-2-2-2-2-2-2-2------|
E|--------------------------------------3-3-3-3-3-3-3-3-3-3-3-3-3-3-3-3------|
Not too sure if he plays that open G string in the G chord, play it how you want.
e|---------------------------------------------------------------------------|
B|---------------------------------------------------------------------------|
G|--4-4-4-4-4-4-4-4--2-2-2-2-2-2-2-2-2--0-0-0-0-0-0-0-0-0-0-0-0-0-0-0-0------|
D|--4-4-4-4-4-4-4-4--2-2-2-2-2-2-2-2-2--0-0-0-0-0-0-0-0-0-0-0-0-0-0-0-0------|
A|--2-2-2-2-2-2-2-2--0-0-0-0-0-0-0-0-0--2-2-2-2-2-2-2-2-2-2-2-2-2-2-2-2------|
E|--------------------------------------3-3-3-3-3-3-3-3-3-3-3-3-3-3-3-3------|



Post-solo lead:

e|------------------------------2--------------2--3--------2--2-2-2-2/----5---|
B|--------------------------------3------5\3---3------3----3--3-3-3-3/----5---|
G|----------------------------------2/4--------2----2------2--2-2-2-2/----7---|
D|---------------------------------------------0-----------0--0-0-0-0/--------|
A|--1-------2----3------------------------------------------------------------|
E|----------------------------------------------------------------------------|
   This first 3 is picked very quietly.                               Rake^^

Rhythm:

e|-------------------------------------------3-----3----------------------------------|
B|---------------------------------------------3-----3---2----------------------------|
G|-0---------------2-------4-------0------0------------0-----0-2--2-2-2-2-2-2-2-2-2---|
D|-0-------2-------2-------4-------0---0---------------------0-2--2-2-2-2-2-2-2-2-2---|
A|-2-------2-------0-------2-------2-------------------------2-0--0-0-0-0-0-0-0-0-0---|
E|-3-------0-----------------------3-------------------------3------------------------|
These first chords are lightly palm-muted, and raked.

Outro Chorus:

Lead:

e|-------------------------------------------------------------------------------------|
B|-------------------------------------------------------------------------------------|
G|--7-7-7-7-7-7-7-7--9-9-9-9-9-9-9-9--11-11-11-11-11-11-11-11--14-14-14-14-14-14-14-14-|
D|-------------------------------------------------------------------------------------|
A|--5-5-5-5-5-5-5-5--7-7-7-7-7-7-7-7---9--9--9--9--9--9--9--9--12-12-12-12-12-12-12-12-|
E|-------------------------------------------------------------------------------------|

e|------------------------------------------------------------------------|
B|-xx-15-x-14/15-x-15--xx15-x-14/15-x-19--xx-15-x--1919-1717-141414151515-|
G|-xx----x-------x-----xx---x-------x-----xx----x-------------------------|
D|-xx-12-x-11/12-x-12--xx12-x-11/12-x-16--xx-12-x--1616-1414-111111121212-|
A|------------------------------------------------------------------------|
E|------------------------------------------------------------------------|

e|-------------------------------------------------------------------------------------|
B|-------------------------------------------------------------------------------------|
G|--7-7-7-7-7-7-7-7--9-9-9-9-9-9-9-9--11-11-11-11-11-11-11-11--14-14-14-14-14-14-14-14-|
D|-------------------------------------------------------------------------------------|
A|--5-5-5-5-5-5-5-5--7-7-7-7-7-7-7-7---9--9--9--9--9--9--9--9--12-12-12-12-12-12-12-12-|
E|-------------------------------------------------------------------------------------|

e|-----------------------------------------------------------------------|
B|-xx-15-x-14/15-x-15--xx15-x-14/15-x-19--xx-15-x-1919-1717-141414151515-|
G|-xx----x-------x-----xx---x-------x-----xx----x------------------------|
D|-xx-12-x-11/12-x-12--xx12-x-11/12-x-16--xx-12-x-1616-1414-111111121212-|
A|-----------------------------------------------------------------------|
E|-----------------------------------------------------------------------|

e|-------------------------------------------------------------------------------------|
B|-------------------------------------------------------------------------------------|
G|--7-7-7-7-7-7-7-7--9-9-9-9-9-9-9-9--11-11-11-11-11-11-11-11--14-14-14-14-14-14-14-14-|
D|-------------------------------------------------------------------------------------|
A|--5-5-5-5-5-5-5-5--7-7-7-7-7-7-7-7---9--9--9--9--9--9--9--9--12-12-12-12-12-12-12-12-|
E|-------------------------------------------------------------------------------------|

e|------------------------------------------------------------------------|
B|-xx-15-x-14/15-x-15--xx15-x-14/15-x-19--xx-15-x--1919-1717-141414151515-|
G|-xx----x-------x-----xx---x-------x-----xx----x-------------------------|
D|-xx-12-x-11/12-x-12--xx12-x-11/12-x-16--xx-12-x--1616-1414-111111121212-|
A|------------------------------------------------------------------------|
E|------------------------------------------------------------------------|

e|-------------------------------------------------------------------------------------|
B|-------------------------------------------------------------------------------------|
G|--7-7-7-7-7-7-7-7--9-9-9-9-9-9-9-9--11-11-11-11-11-11-11-11--14-14-14-14-14-14-14-14-|
D|-------------------------------------------------------------------------------------|
A|--5-5-5-5-5-5-5-5--7-7-7-7-7-7-7-7---9--9--9--9--9--9--9--9--12-12-12-12-12-12-12-12-|
E|-------------------------------------------------------------------------------------|


Rhythm:

e|---------------------------------------------------------------------------|
B|---------------------------------------------------------------------------|
G|--4-4-4-4-4-4-4-4--2-2-2-2-2-2-2-2-2--0-0-0-0-0-0-0-0-0-0-0-0-0-0-0-0------|
D|--4-4-4-4-4-4-4-4--2-2-2-2-2-2-2-2-2--0-0-0-0-0-0-0-0-0-0-0-0-0-0-0-0------|
A|--2-2-2-2-2-2-2-2--0-0-0-0-0-0-0-0-0--2-2-2-2-2-2-2-2-2-2-2-2-2-2-2-2------|
E|--------------------------------------3-3-3-3-3-3-3-3-3-3-3-3-3-3-3-3------|
Not too sure if he plays that open G string in the G chord, play it how you want.
e|---------------------------------------------------------------------------|
B|---------------------------------------------------------------------------|
G|--4-4-4-4-4-4-4-4--2-2-2-2-2-2-2-2-2--0-0-0-0-0-0-0-0-0-0-0-0-0-0-0-0------|
D|--4-4-4-4-4-4-4-4--2-2-2-2-2-2-2-2-2--0-0-0-0-0-0-0-0-0-0-0-0-0-0-0-0------|
A|--2-2-2-2-2-2-2-2--0-0-0-0-0-0-0-0-0--2-2-2-2-2-2-2-2-2-2-2-2-2-2-2-2------|
E|--------------------------------------3-3-3-3-3-3-3-3-3-3-3-3-3-3-3-3------|

e|---------------------------------------------------------------------------|
B|---------------------------------------------------------------------------|
G|--4-4-4-4-4-4-4-4--2-2-2-2-2-2-2-2-2--0-0-0-0-0-0-0-0-0-0-0-0-0-0-0-0------|
D|--4-4-4-4-4-4-4-4--2-2-2-2-2-2-2-2-2--0-0-0-0-0-0-0-0-0-0-0-0-0-0-0-0------|
A|--2-2-2-2-2-2-2-2--0-0-0-0-0-0-0-0-0--2-2-2-2-2-2-2-2-2-2-2-2-2-2-2-2------|
E|--------------------------------------3-3-3-3-3-3-3-3-3-3-3-3-3-3-3-3------|
Not too sure if he plays that open G string in the G chord, play it how you want.
e|---------------------------------------------------------------------------|
B|---------------------------------------------------------------------------|
G|--4-4-4-4-4-4-4-4--2-2-2-2-2-2-2-2-2--0-0-0-0-0-0-0-0-0-0-0-0-0-0-0-0------|
D|--4-4-4-4-4-4-4-4--2-2-2-2-2-2-2-2-2--0-0-0-0-0-0-0-0-0-0-0-0-0-0-0-0------|
A|--2-2-2-2-2-2-2-2--0-0-0-0-0-0-0-0-0--2-2-2-2-2-2-2-2-2-2-2-2-2-2-2-2------|
E|--------------------------------------3-3-3-3-3-3-3-3-3-3-3-3-3-3-3-3------|

e|---------------------------------------------------------------------------|
B|---------------------------------------------------------------------------|
G|--4-4-4-4-4-4-4-4--2-2-2-2-2-2-2-2-2--0-0-0-0-0-0-0-0-0-0-0-0-0-0-0-0------|
D|--4-4-4-4-4-4-4-4--2-2-2-2-2-2-2-2-2--0-0-0-0-0-0-0-0-0-0-0-0-0-0-0-0------|
A|--2-2-2-2-2-2-2-2--0-0-0-0-0-0-0-0-0--2-2-2-2-2-2-2-2-2-2-2-2-2-2-2-2------|
E|--------------------------------------3-3-3-3-3-3-3-3-3-3-3-3-3-3-3-3------|
Not too sure if he plays that open G string in the G chord, play it how you want.
e|---------------------------------------------------------------------------|
B|---------------------------------------------------------------------------|
G|--4-4-4-4-4-4-4-4--2-2-2-2-2-2-2-2-2--0-0-0-0-0-0-0-0-0-0-0-0-0-0-0-0------|
D|--4-4-4-4-4-4-4-4--2-2-2-2-2-2-2-2-2--0-0-0-0-0-0-0-0-0-0-0-0-0-0-0-0------|
A|--2-2-2-2-2-2-2-2--0-0-0-0-0-0-0-0-0--2-2-2-2-2-2-2-2-2-2-2-2-2-2-2-2------|
E|--------------------------------------3-3-3-3-3-3-3-3-3-3-3-3-3-3-3-3------|

Lead:

e|---------------------------------------------------------------------------|
B|---------------------------------------------------------------------------|
G|---------------------------------------------------------------------------|
D|---2---3---5---------------------------------------------------------------|
A|---2---3---5---------------------------------------------------------------|
E|---0---1---3---------------------------------------------------------------|
 After playing these just mess around with the notes in the F#5 bar chord.


Rhythm:

e|---------------------------------------------------------------------------|
B|---------------------------------------------------------------------------|
G|---0---0---0---------------------------------------------------------------|
D|---0---0---0---------------------------------------------------------------|
A|---2---2---2---------------------------------------------------------------|
E|---3---3---3---------------------------------------------------------------|
Like with the lead, just mess around with the G chord.

************************************

| /   slide up
| \   slide down
| h   hammer-on
| p   pull-off
| ~   vibrato
| +   harmonic
| x   Mute note
| b   Bend
| bd  Bend down
| bubd Bend up, bend down
| pb  Pre-bend
| br  Bend release
| pbr Pre-bend release
| brb Bend release bend
| sb  Slowly bend

************************************
Figured this out by using their live video, a couple of covers,  but most of the 
parts by ear.
A quick note: when I said ďfullness of the G chordsĒ I mean you can choose to 
remove the B/e notes from the chord[for example] and have it sounding rougher.
As far as mistakes go, Iím 99% sure that the lead is right. Iím a little less 
certain with some of the Rhythm parts, maybe 90% certain, I think all Iím missing 
is the Rhythm pre-chorus, I would be happy to take suggestions, if not, Iíll try 
updating sometime.
Let me know if this is confusing, though it shouldnít be.
Enjoy.
Tap to rate this tab
 
# A B C D E F G H I J K L M N O P Q R S T U V W X Y Z